Song name
# A B C D E F G H I J K L M N O P Q R S T U V W X Y Z

Gavin Degraw - Sweeter chords

Highlighted       Show chord diagrams
-----------------------------------------------------------------------------
			     Sweeter - Gavin DeGraw
-----------------------------------------------------------------------------

Tabbed by: JBW
Song : Sweeter
Artist : Gavin DeGraw
Album : Sweeter

Tuning: Standard

Chords Used :   A   G   F   D
Everything is here for the song. You just need to play along with it to get it :)
easy but fun song to play and sing (harder to sing)
On the second half of the verses he plays octaves on piano of the root notes for each chord

e|----0------3--------1--------2--------------------------------------------|
B|----2------3--------1--------3--------------------------------------------|
G|----2------0--------2--------2--------------------------------------------|
D|----2------0--------3--------0--------------------------------------------|
A|----0------2--------3-----------------------------------------------------|
E|-----------3--------1-----------------------------------------------------|

Intro/ verses (Lead melody)
the very first time is slightly different than the rest (listen for the specific 
parts and the changes :)

e|--------------------------------------------------------------------------|
B|--------------------------------------------------------------------------|
G|--------------------------------------------------------------------------|
D|--------------------------------------------------------------------------|
A|-----------------------------------------------------------3-4-5----------|
E|----5--5--5--5--5--5---3-3-3-------------5--5--5--5--5--5-----------------|

e|--------------------------------------------------------------------------|
B|--------------------------------------------------------------------------|
G|--------------------------------------------------------------------------|
D|--------------------------------------------------------------------------|
A|---------------------3-4-5-------------------------3-4-5------------------|
E|----3--3--3--3--3--3-------------1--1--1--1--1--1-------------------------|

  A
You

You don't know how lucky you are
                                  G
Hanging with that girl on your arm
    F                             A
But soon enough I'm taking my shot

Bang! 
Once I get 'em locked in my sight
Doesn't mean I wasn't alright
I'm just seeing something I like

Woo hoo 

(Chorus)
A               G
I just wanna take
D                 A
Someone else's holiday
A                        G
Sometimes the grass is greener
D        
And someone else's sugar
  F              G
Someone else's sugar
N/C
Sweeter

Intro

You
Went to school and found out you're dumb
Maybe you just had too much fun
Fell in love and think it's the one

You're like an angel
Got me feeling like a devil
And I wanna give you something if
You promise that you won't tell

Woo hoo

(Chorus)

A
I'm a recommend 
You take that body to the other end
I really like you but I can't be friends
N/C (but i go down G  F  G then back into chorus with A)
Not with these hands of mine

(Chorus)

(Chorus)
Tap to rate this tab
 
# A B C D E F G H I J K L M N O P Q R S T U V W X Y Z