Song name
# A B C D E F G H I J K L M N O P Q R S T U V W X Y Z

Gavin Degraw - Candy chords

Highlighted       Show chord diagrams
-----------------------------------------------------------------------------
			     CANDY - Gavin DeGraw
-----------------------------------------------------------------------------

Tabbed by: JBW
Artist : Gavin DeGraw
Album : Sweeter
Song : Candy

This song is really fun and easy to play. Its the same progression until the bridge and 
the outro.
 I have the basic chords for the outro. I think he uses some piano inversion and he 
might add a couple notes for color.
but here it is enjoy and have fun :)


Tuning: Standard

Chords Used : E   A   B   Bm   C#m   or C#m7

e|-------0-----0-----2----2-------4---4-------------------------------------|
B|-------0-----2-----4----3-------5---5-------------------------------------|
G|-------1-----2-----4----4-------6---4-------------------------------------|
D|-------2-----2-----4----4-------6---6-------------------------------------|
A|-------2-----0-----2----2-------4---4-------------------------------------|
E|-------0------------------------------------------------------------------|


Intro : E   B   C#m   A


E              B              C#m               A
Remember the day you came to me and said you found the truth?
And I turned away and told you should take another look?
You said you'd see what's going on
I know you trust but something's wrong

E           B             C#m
We have our lives to bear
        A
Our bags to burden
But we just buy and we wear
The plastic version of
Love, hope, understanding
But we can't survive on candy

Red carpet ride
Can take your mind
Away from anything
And I wanna die
At every mention of "celebrity"
Like "who's doing who"
Just how and where
Long as it's not you
I just don't care

We have our lives to bear
Our bags to burden
But we just buy and we wear
The plastic version of
Love, hope, understanding
But we can't survive on candy

C#m           A               E          B
Running far away from all your serious concerns
I know you've learned to you use your fairytales
To get you through the hurt
Who's falling? We're falling
And there's just no climbing back
So I'm slowin', I'm stallin'
While I'm under full attack


We have our lives to bear
Our bags to burden
But we just buy and we wear
The plastic version of
Love, hope and understanding
But we can't survive on candy
On candy
On candy
On candy
We can't survive, can't survive on candy


Outro : E   B   Bm   A
Tap to rate this tab
# A B C D E F G H I J K L M N O P Q R S T U V W X Y Z