Song name
# A B C D E F G H I J K L M N O P Q R S T U V W X Y Z

Gavin Degraw - Why Do The Men Stray tab

This tab is what Gavin Degraw plays in this video: http://www.youtube.com/watch?v=VhpBCA5iZZA

This is my first Tab :) (also I copied & edited manda003's Tab to use as a 
template. So thank you manda003)

To my best knowlegde this tab is 100% correct, if you see any mistakes please msg me :)

intro 2x
    F             G                    C                   Am
e-------------1---------------3-----------------3----------------5-------|
B-------------1---------------3-----------------5----------------5-------|
G-------------2---------------4-----------------5----------------5-------|
D-------------3---------------5-----------5-----5----------------7-------|
A-------3---------------5------------3---------------------7-----7-------|
E--1---------------3-----------------------------------5-----------------|





 Why do the men stray,             why do the women pray
    F             G                    C                   Am
e-------------1---------------3-----------------3----------------5-------|
B-------------1---------------3-----------------5----------------5-------|
G-------------2---------------4-----------------5----------------5-------|
D-------------3---------------5-----------5-----5----------------7-------|
A-------3---------------5------------3---------------------7-----7-------|
E--1---------------3-----------------------------------5-----------------|



   Why do the men fight             Why do the women sympathize
    F             G                    C                   Am
e-------------1---------------3-----------------3----------------5-------|
B-------------1---------------3-----------------5----------------5-------|
G-------------2---------------4-----------------5----------------5-------|
D-------------3---------------5-----------5-----5----------------7-------|
A-------3---------------5------------3---------------------7-----7-------|
E--1---------------3-----------------------------------5-----------------|


             Whoa  it   was  easier  before I loved, 
     F             G                    C                   Am
e-------------1---------------3-----------------3----------------5-------|
B-------------1---------------3-----------------5----------------5-------|
G-------------2---------------4-----------------5----------------5-------|
D-------------3---------------5-----------5-----5----------------7-------|
A-------3---------------5------------3---------------------7-----7-------|
E--1---------------3-----------------------------------5-----------------|


             Before this heart was turned to stone
   F             G                    C                   Am
e-------------1---------------3-----------------3----------------5-------|
B-------------1---------------3-----------------5----------------5-------|
G-------------2---------------4-----------------5----------------5-------|
D-------------3---------------5-----------5-----5----------------7-------|
A-------3---------------5------------3---------------------7-----7-------|
E--1---------------3-----------------------------------5-----------------|


      Before this blood was stirred and blood was spilled
   F             G                    C                   Am
e-------------1---------------3-----------------3----------------5-------|
B-------------1---------------3-----------------5----------------5-------|
G-------------2---------------4-----------------5----------------5-------|
D-------------3---------------5-----------5-----5----------------7-------|
A-------3---------------5------------3---------------------7-----7-------|
E--1---------------3-----------------------------------5-----------------|


   No   one    was   ever   meant  to   be   alone
   F             G                    C                   Am
e-------------1---------------3-----------------3----------------5-------|
B-------------1---------------3-----------------5----------------5-------|
G-------------2---------------4-----------------5----------------5-------|
D-------------3---------------5-----------5-----5----------------7-------|
A-------3---------------5------------3---------------------7-----7-------|
E--1---------------3-----------------------------------5-----------------|


The rest of the song continues in that pattern, so just play this throughout the verses:

    F             G                    C                   Am
e-------------1---------------3-----------------3----------------5-------|
B-------------1---------------3-----------------5----------------5-------|
G-------------2---------------4-----------------5----------------5-------|
D-------------3---------------5-----------5-----5----------------7-------|
A-------3---------------5------------3---------------------7-----7-------|
E--1---------------3-----------------------------------5-----------------|


Why do the birds sing
What do they call that thing
Why do the bombs boom
We're running out of living room

Our needs getting needier and needier
More lies are told until they're truth
Until the messages are massacred
Old men get all their killing done with youth

Why do the men stray
Why do the women pray
Why do the men fight
Why do the women sympathize

All these wooden houses
Light themselves on fire in turn
Oh but someday there will be nothing left to burn
Oh someday there will be nothing left to burn
Tap to rate this tab
# A B C D E F G H I J K L M N O P Q R S T U V W X Y Z