Song name
# A B C D E F G H I J K L M N O P Q R S T U V W X Y Z

Gay Nineties - Letterman chords

Highlighted       Show chord diagrams
-------------------------------------------------------------------------------
                            LETTERMAN - Gay Nineties
-------------------------------------------------------------------------------
Tabbed by: Pat Malavi
pat.malavi@gmail.com

Band website: http://www.thegaynineties.ca/


Intro riff below


E 
We made a pact to separate ourselves from the pack
E
Now tell me just how the hell we supposed to do that
A
I know you tried, I know you tried
A                                                 E
I watched you try but baby let me try for a while


E 
We met at dawn and tried to keep our Sunday clothes on
E
Up in your room I always come a little too soon
A
To tell the truth, you know the truth
A                                               E
I know the truth when you came back through you

 
           A                                        E
You're the culmination of everything I've never had
            A                                                   E        E
But it's so hard to love you, it's like we never get the chance, aah aah
      B               A                                       E
We go way back, we go way back-ack-ack-ack-ack-ack-ack-ack-ah


E 
We made a pact to separate the truth from fact
E
I've seen your past and I don't know why you're looking back
A
The river runs right through you
A                                                     E
But under rocks there's always something better to do


           A                                        E
You're the culmination of everything I've never had
            A                                                   E
But it's so hard to love you, it's like we never get the chance
           A                                        E        E
You're the culmination of everything I've never had, aah aah
      B               A                                       E
We go way back, we go way back-ack-ack-ack-ack-ack-ack-ack-ah


Intro and outro riff
e|---------------------------------------------------------------------------|
B|---------------------------------------------------------------------------|
G|---------------------------------------------------------------------------|
D|---------------------------------------------------------------------------|
A|----2-2-2-4-4-4-6-6-6-4-4-4-2-2-4-4-2-2-2-4-4-4-6-6-6-4-4-4-2-2-4-4--------|
E|----0-0-0-0-0-0-0-0-0-0-0-0-0-0-0-0-0-0-0-0-0-0-0-0-0-0-0-0-0-0-0-0--------|


Pre-chorus riff

e|----12----12----12--/16----16----16---12----12----12--/16----16----16------|
B|------12----12---------17----17---------12----12---------17----17----------|
G|--------13----13---------16----16---------13----13---------16----16--------|
D|---------------------------------------------------------------------------|
A|---------------------------------------------------------------------------|
E|---------------------------------------------------------------------------|
Tap to rate this tab
# A B C D E F G H I J K L M N O P Q R S T U V W X Y Z