Song name
# A B C D E F G H I J K L M N O P Q R S T U V W X Y Z

Gazebo - Nevica tab

intro
|----------------|----------------|
|----------------|----------------|
|----------------|----------------|
|-----9----9---9-|-----9----9---9-|
|-7-7----7---7---|-7-7----7---7---|
|----------------|----------------|

post-intro x 2
|----------------|----------------|----------------|----------------|
|----------------|----------------|----------------|----------9-7---|
|----------------|----------------|-----9----9-8---|-----8--------8-|
|-----9----9---9-|-----9----9---9-|-7-7----7-----7-|-6-6----6-------|
|-7-7----7---7---|-7-7----7---7---|----------------|----------------|
|----------------|----------------|----------------|----------------|

verse 1/2 x 4

|----------------|----------------|----------------|----------------|
|----------------|----------------|----------------|----------------|
|-9--9----9------|-9--9----9------|-2-2-2-2-2-2-2--|-6-6-6-6-6-6-6--|
|-9--9----9------|-9--9----9------|-2-2-2-2-2-2-2--|-6-6-6-6-6-6-6--|
|-7----7--7------|-7----7--7------|-0-0-0-0-0-0-0--|-4-4-4-4-4-4-4--| 
|----------------|----------------|----------------|----------------| 

verse 2/2 x2
|----------------|----------------|----------------|----------------| 
|----------------|----------------|----------------|----------------| 
|-9------9-------|-9------9-------|-2-2-2-2-2-2-2--|-6-6-6-6--9-8---|
|-9------9-------|-9------9-------|-2-2-2-2-2-2-2--|-6-6-6-6------9-| 
|-7---7--7-------|-7---7--7-------|-0-0-0-0-0-0-0--|-4-4-4-4--------|
|----------------|----------------|----------------|----------------|

bass "solo"

|----------------|----------------|----------------|----------------|
|----------------|----------------|----------------|----------------|
|----------------|----------------|----------------|----------------|
|-0-0-0-0-0-0-0--|-5-5-5-5-5-5-5--|-4-4-4-4-4-4-4--|-2-2-2-2-2-2-2--|

x2
|----------------|----------------|----------------|----------------|
|----------------|----------------|----------------|----------------|
|----------------|----------------|----------------|----------------|
|-2---2-2---2-2--|-7---7-7---7-7--|-6---6-6---6-6--|-4---4-4---4-4--|
|-2---2-2---2-2--|-7---7-7---7-7--|-6---6-6---6-6--|-4---4-4---4-4--|
|-0---0-0---0-0--|-5---5-5---5-7--|-4---4-4---4-4--|-2---2-2---2-2--|

x2
|--------------0-|--------------0-|--------------0-|--------------0-|
|----------------|----------------|----------------|----------------|
|----------------|----------------|----------------|----------------|
|-2---2-2---2-2--|-7---7-7---7-7--|-6---6-6---6-6--|-4---4-4---4-4--|
|-2---2-2---2-2--|-7---7-7---7-7--|-6---6-6---6-6--|-4---4-4---4-4--|
|-0---0-0---0-0--|-5---5-5---5-7--|-4---4-4---4-4--|-2---2-2---2-2--|

end

|----------------|----------------|----------------|----------------|
|----------------|----------------|----------------|----------------|
|----------------|----------------|----------------|----------------|
|-2--------------|-2--------------|-2--------------|-2--------------| 
|-2--------------|-2--------------|-2--------------|-2--------------|
|-0--------------|-0--------------|-0--------------|-0--------------|


Tap to rate this tab
# A B C D E F G H I J K L M N O P Q R S T U V W X Y Z