Song name
# A B C D E F G H I J K L M N O P Q R S T U V W X Y Z

Gazette - Reila tab

~ The GazettE - Reila ~

Amazing song, amazing band, check them out

This may not be exactly how Aoi plays it, i didnt have enough time to youtube the PV or 
lives, so this is just the notes ;)

Eventually i will tab Uruha's solo that directly follows Aoi's, but im using someone 
guitar at the moment as my own is in my schools storage room and this guitars neck is too 
ahah

enjoy.


Aoi's Solo (3:14)-(3:45)
e--------------------------14---------------------|
b----------------12------------12--10--10---------|
g--9--9-----9------------------------------12--12-|
d--------9----------------------------------------|
a-------------------------------------------------|
E-------------------------------------------------|

e-------------------------------------------------|
b--------------------------------------12---------|
g--11--11--11----12--12---9--9-----9--------------|
d-------------------------------9-----------------|
a-------------------------------------------------|
E-------------------------------------------------|

e----------------------------------------14-------|
b--10-12-10----------------------------------12-12|
g------------12--11----11--12--11--9--------------|
d--------------------9----------------------------|
a-------------------------------------------------|
E-------------------------------------------------|

e--15----------10--10b(12)~-----------------------|
b------13--12--------------13-12-10-12b(13)r(12)--|
g-------------------------------------------------|
d-------------------------------------------------|
a-------------------------------------------------|
E-------------------------------------------------|

e-------------------------------------------------|
b-------10-11b(12)--------------------------------|
g-11-12---------------12-11-9--11--12--11--12--11-|
d-------------------------------------------------|
a-------------------------------------------------|
E-------------------------------------------------|

e-14--------15-------17---15--14--12---14--15-pb(20)r19-|
b----12-12-----12-12------------------------------------|
g-------------------------------------------------------|
d-------------------------------------------------------|
a-------------------------------------------------------|
E-------------------------------------------------------|

r   - bend release (if no number after the r, then release immediately)
pb  - prebend

This band is just amazing.
PS. sorry is certain notes are on the wrong string, it was late when i wrote it all out 
this is my first official posted tab
Tap to rate this tab
 
# A B C D E F G H I J K L M N O P Q R S T U V W X Y Z