Song name
# A B C D E F G H I J K L M N O P Q R S T U V W X Y Z

Gazette - Burial Applicant Live tab

-------------------------------------------------------------------------------
			     Burial Applicant - The GazettE
-------------------------------------------------------------------------------

hello ^_^ this is the intro that uruha plays at the REPEATED COUNTLESS ERROR live, hope 
enjoy and comment it :)

oh and the part where i said repeat a few times im not sure if its x10 its 
something like 10 times lol


Tabbed by: Mitch
Email: mitch_1991_05@hotmail.com

Tuning: Drop B

let ring -----------------------------------------------------------|
C#|--------------------------|----------5-------------2-------------|
G#|---------3---------4------|--------------3------------------4----|
E|-------------5----------5--|----------------------------2---------|
B|----------------0----------|-------------------0------------------|
F#|--------------------------|--------------------------------------|
B|------0--------------------|-------0------------------------------|

C#|------------------------------------5-------------2---------------|
G#|---------3---------4--------------------3------------------4------|
E|-------------5----------5------------------------------2-----------|
B|----------------0-----------------------------0-----------------0--|
F#|------------------------------------------------------------------|
B|-------0-------------------------0---------------------------------|

this part repeat a few times fast
C#|--8-----------------------|------------|
G#|---------10----------- ---|------------|
E|------8-------8--(x10)-----|------------|
B|---------------------------|----0-------|
F#|--------------------------|------------|
B|---------------------------|---------0--|
Tap to rate this tab
# A B C D E F G H I J K L M N O P Q R S T U V W X Y Z