Gazette - Reila tab

              ~This is the Intro and Aoi's Solo
~Keep in mind that I just tweaked some tabs that I had seen for Aoi's solo because 
it sounded right to me.
~The intro,I found on my own,so tell me what you think.
                 
                [Reila-Gazette]

                    [INTRO]
e---19--14--15------------------------------------|
b-------------------15--17------------------------|
g---------------17--------------------------------|
D-------------------------------------------------|
A-------------------------------------------------|
E-------------------------------------------------|

                  [Aoi's Solo]
e--------------------------14-----------------------------|
b---/5-----5-----12------------12-12--10-10--8-8--7-7-7--8|
g-------4-------------------------------------------------|
D---------------------------------------------------------|
A---------------------------------------------------------|
E---------------------------------------------------------|

e-------------------------------------------------------------|
b---/5-----5-----12--------10h12--10--------------------------|
g-------4-----------------------------12--11-----11--12--11--9|
D---------------------------------------------9---------------|
A-------------------------------------------------------------|
E-------------------------------------------------------------|

e---14------15-----------------------------------------------|
b-------12------13-12----------13-12-10-12-------------------|
g----------------------19-19^-----------------11--12--14-14^-|
D------------------------------------------------------------|
A------------------------------------------------------------|
E------------------------------------------------------------|

e----------------------------14------15------17--15--14--12--14--15--19^---|
b--------------------------------12------12--------------------------------|
g---12-11-9-11---12--11----------------------------------------------------|
D--------------------------------------------------------------------------|
A--------------------------------------------------------------------------|
E--------------------------------------------------------------------------|

      (Let me know what you guys think,it's my first tab...^(^.^)>
               ^=Bend(listen to song to get the right bend)
                            h=Hammer-on
Tap to rate this tab
 
# A B C D E F G H I J K L M N O P Q R S T U V W X Y Z