Guitaretab - guitar tabs
Song name
# A B C D E F G H I J K L M N O P Q R S T U V W X Y Z
Home / G / Gazette / Taion tab

Gazette - Taion tab

-------------------------------------------------------------------------------
			     TAION - The GazettE
-------------------------------------------------------------------------------
Tuning – DROP B but I use DROP C Tuning….Just 1 fret down, hehe…..
INTRO
d|--------------------------|
A|--------------------------|
F|--------------------------|
C|-----2--------------------| x 10
G|--0-----0-----3-----2--3--|
C|-----------3-----3--------|

VERSE 

d|--------12----------------------------------|--------12--------------------12-------10--------|
A|--8-10--------10------8-10-8\7----13----10--|--8-10--------10------8/10-------10\8-----8\6----|
F|--------------------------------------------|-------------------------------------------------|
C|--------------------------------------------|-------------------------------------------------|
G|--------------------------------------------|-------------------------------------------------|
C|--------------------------------------------|-------------------------------------------------|

d|--8------8--------|---------------------------------------------|
A|----6\5----5-6-5--|---------------------------------------------|
F|------------------|---------------------------------------------|
C|------------------|---------------------------------------------|
G|------------------|--0--------0--------0----0----0----3--3---3--|
C|------------------|--0--------0--------0----0----0----3--3---3--|
                                                        .  .   .  
HEAVY PART

d|---------------------------------------|
A|---------------------------------------|
F|---------------------------------------|
C|---------------------------------------| x 8
G|--2----2--3--2--3---2----2----2--3--5--|
C|--2----2--3--2--3---2----2----2--3--5--|
                                .  .  .   

d|--------12----------------------------------|--------12--------------------12-------10--------|
A|--8-10--------10------8-10-8\7----13----10--|--8-10--------10------8/10-------10\8-----8\6----|
F|--------------------------------------------|-------------------------------------------------|
C|--------------------------------------------|-------------------------------------------------|
G|--------------------------------------------|-------------------------------------------------|
C|--------------------------------------------|-------------------------------------------------|

d|--8------8--------|---------------------------------------------|
A|----6\5----5-6-5--|---------------------------------------------|
F|------------------|---------------------------------------------|
C|------------------|---------------------------------------------|
G|------------------|--0--------0--------0----0----0----3--3---3--|
C|------------------|--0--------0--------0----0----0----3--3---3--|
                                                        .  .   .  

d|---------------------------------------|
A|---------------------------------------|
F|---------------------------------------|
C|---------------------------------------| x 8
G|--2----2--3--2--3---2----2----2--3--5--|
C|--2----2--3--2--3---2----2----2--3--5--|
                                .  .  .   
d|-----------------------------------------------|
A|-----------------------------------------------|
F|-----------------------------------------------|
C|--7--6--------------7--6-----------------------| 
G|--5--4--------------5--4--------------5--5--5--|
C|--------0--0--0--0--------0--0--0--0--5--5--5--|

[ Tab from: http://www.guitaretab.com/g/gazette/283953.html ]
d|--------------------------|
A|--------------------------|
F|--------------------------|
C|-----2--------------------| x 8
G|--0-----0-----3-----2--3--|
C|-----------3-----3--------|

d|-------------------|----------------|
A|-------------------|----------------|
F|-------------------|----------------|
C|-------------------|----------------| x 4
G|--3----------3--5--|--7----------5--|
C|--3----------3--5--|--7----------5--|
                                   
d|--------|
A|--------|
F|--------|
C|--------| 
G|--7~----|
C|--7~----|

d|--------12----------------------------------|--------12--------------------12-------10--------|
A|--8-10--------10------8-10-8\7----13----10--|--8-10--------10------8/10-------10\8-----8\6----|
F|--------------------------------------------|-------------------------------------------------|
C|--------------------------------------------|-------------------------------------------------|
G|--------------------------------------------|-------------------------------------------------|
C|--------------------------------------------|-------------------------------------------------|

d|--8------8--------|---------------------------------------------|
A|----6\5----5-6-5--|---------------------------------------------|
F|------------------|---------------------------------------------|
C|------------------|---------------------------------------------|
G|------------------|--0--------0--------0----0----0----3--3---3--|
C|------------------|--0--------0--------0----0----0----3--3---3--|
                                                        .  .   .  

d|---------------------------------------|
A|---------------------------------------|
F|---------------------------------------|
C|---------------------------------------| x 8
G|--2----2--3--2--3---2----2----2--3--5--|
C|--2----2--3--2--3---2----2----2--3--5--|
                                .  .  . 
  
d|--------------------------|--------------------------|----------------------------------------|
A|--------------------------|--------------------------|--------------------------------12--12--|
F|--------------------------|--------------------------|-----------------9--11--11--11--11--11--|
C|--------------------------|--------------------------|-----------------9--11--11--11----------| 
G|--0--0--0--0--0--0--0--0--|--x--x--x--x--x--x--x--x--|--4--4--4--4--4-------------------------|
C|--0--0--0--0--0--0--0--0--|--x--x--x--x--x--x--x--x--|--4--4--4--4--4-------------------------|

d|--------------------|--------------------------|--------------------------|
A|--10--10--9--9--10--|--------------------------|--------------------------|
F|---9---9--9--9---9--|--------------------------|--------------------------|
C|--------------------|--------------------------|--------------------------| 
G|--------------------|--0--0--0--0--0--0--0--0--|--x--x--x--x--x--x--x--x--|
C|--------------------|--0--0--0--0--0--0--0--0--|--x--x--x--x--x--x--x--x--|
                                  
d|--------------------------|--------------------------|
A|--------------------------|--------------------------|
F|--------------------------|--------------------------|
C|--------------------------|--------------------------| x 4
G|--4--4--4--4--4--4--4--4--|--4--4--4--4--4--4--4--4--|
C|--4--4--4--4--4--4--4--4--|--4--4--4--4--4--4--4--4--|

d|--------------------------|
A|--------------------------|
F|--------------------------|
C|-----2--------------------| x 16
G|--0-----0-----3-----2--3--|
C|-----------3-----3--------|


. - palm mute
~ - let ring


This is my first tab.....^_^ enjoy!!!!
Related for Taion tab
Taion chords by Gazette