Song name
# A B C D E F G H I J K L M N O P Q R S T U V W X Y Z

Gazette - Anata No Tame No Kono Inochi tab

This is my first tab ever. Hope it has some use to someone..
Notes I've marked with a "v" don't necessarily mean you have to
vibrate them (although I do a little lol), just keep em longer.



e|-------------------------------------------------------------------|
B|----8---10-10-8-10-10^-10^-10-8------------------------------------|
G|-/9---9-------------------------9-7-9v-7-------------7-------------|
D|-----------------------------------------9-7------9v---9v-7--------|
A|---------------------------------------------10-7-----------10-7\--|
E|-------------------------------------------------------------------|



e|-------------------------------------------------------------------|
B|---8---10-10-8-10-10^-10^-10-8---------------------8---10^---8-----|
G|-9---9-------------------------9-7-9v-7---7-8-9v-9---9-----9---9v--|
D|----------------------------------------9--------------------------|
A|-------------------------------------------------------------------|
E|-------------------------------------------------------------------|

ending riff
e|---------------------|
B|-/17-17-17-17-17-17--|
G|-/16-16-16-16-16-16--|
D|---------------------|
A|---------------------|
E|---------------------|

/ - slide up
\ - slide down
^ - bend
v - vibrato
Tap to rate this tab
# A B C D E F G H I J K L M N O P Q R S T U V W X Y Z