Song name
# A B C D E F G H I J K L M N O P Q R S T U V W X Y Z

Gazpacho - Snail chords

Highlighted       Show chord diagrams
                                          Artist - Gazpacho
                                         *******************
                                            Song - Snail
                                           **************
                                       Album - Missa Atropos
                                      ***********************
                                        Tabbed By - Ayreon77
                                       **********************



Clean Electric Guitar With Reverb.

INTRO
******
Em C Am C


----------------------------------------------------
VERSE 1
********
          Em                       C
Donít ask me again, what Iíve been doing
         Am                     C
You know too well, you know too well
Em                                 C
Thing that might surprise you even now is how
       Am           C
desensitized, specialized


----------------------------------------------------
CHORUS
*******
C
What I did was make for me a special place
   Em 
Of disassociated perfect peace
  C
I find it suits my moods and needs so very well
     Em            D
What I became, now I became


----------------------------------------------------
01:20
Plenty of Delay
Small Solo - Em C Am C
[----------s-------------------------]
[-8---8---8\10--------s--------------]
[--------------9-----7\9-----7-7-----]
[----------------------------------9-]
[------------------------------------]
[------------------------------------]


----------------------------------------------------
VERSE 2
********   
            Em                             C
There is no match, thereís nothing you can say
             Am              C
To change my mind, change my mind


----------------------------------------------------
CHORUS
*******
C
What I did was make for me a special place
       Em
Youíve lost me now, lost me now
C
Disassociated peace you knew so well
   Em              D           
Is in this shell, in this shell


----------------------------------------------------
02:22
Small Solo - Em C Am C
[------h-------|---------|--------------------------]
[----12-13-12--|---8-----|---12--8-----------12---8-]
[-9------------|-9----9--|-9--------11---9----------]
[--------------|---------|--------------------------]
[--------------|---------|--------------------------]
[--------------|---------|--------------------------]


[---------|--------------------------]
[---8-----|---12--8-----------12---8-]
[-9----9--|-9--------11---9----------]
[---------|--------------------------]
[---------|--------------------------]
[---------|--------------------------]


----------------------------------------------------
CHORUS
*******
C
What I did was make for me a special place
   Em
Of disassociated perfect peace
  C
I find it suits my moods and needs so very well
     Em         D
What I became, I became

Em


Great Tune.

ENJOY..............

Tap to rate this tab
# A B C D E F G H I J K L M N O P Q R S T U V W X Y Z