Song name
# A B C D E F G H I J K L M N O P Q R S T U V W X Y Z

Gbh - State Executioner tab

Intro
E---------|---------|---------|---------|
B---------|---------|---------|---------|
G-12--9-9-|-12--9-9-|-12--9-9-|-12--9-9-|
D-12--9-9-|-12--9-9-|-12--9-9-|-12--9-9-|
A-10--7-7-|-10--7-7-|-10--7-7-|-10--7-7-|
E---------|---------|---------|---------|

Main Riff
E--------------|--------------|--------------|--------------|
B--------------|--------------|--------------|--------------|
G-4-4-4-4--5-7-|-4-4-4-4--5-7-|-4-4-4-4--5-7-|-4-4-4-4--5-7-|
D-4-4-4-4--5-7-|-4-4-4-4--5-7-|-4-4-4-4--5-7-|-4-4-4-4--5-7-|
A-2-2-2-2--3-5-|-2-2-2-2--3-5-|-2-2-2-2--3-5-|-2-2-2-2--3-5-|
E--------------|--------------|--------------|--------------|

Verse
E--------------|--------------|--------------|--------------|
B--------------|--------------|--------------|--------------|
G-4-4-4-4--5-7-|-4-4-4-4--5-7-|-4-4-4-4--5-7-|-4-4-4-4--5-7-|
D-4-4-4-4--5-7-|-4-4-4-4--5-7-|-4-4-4-4--5-7-|-4-4-4-4--5-7-|
A-2-2-2-2--3-5-|-2-2-2-2--3-5-|-2-2-2-2--3-5-|-2-2-2-2--3-5-|
E--------------|--------------|--------------|--------------|

Chorus
E---------|---------|---------|---------|
B---------|---------|---------|---------|
G-12--9-9-|-12--9-9-|-12--9-9-|-12--9-9-|
D-12--9-9-|-12--9-9-|-12--9-9-|-12--9-9-|
A-10--7-7-|-10--7-7-|-10--7-7-|-10--7-7-|
E---------|---------|---------|---------|

E---------|---------|---------|---------|
B---------|---------|---------|---------|
G-12--9-9-|-12--9-9-|-12--9-9-|-12--9-9-|
D-12--9-9-|-12--9-9-|-12--9-9-|-12--9-9-|
A-10--7-7-|-10--7-7-|-10--7-7-|-10--7-7-|
E---------|---------|---------|---------|

Main Riff
E--------------|--------------|--------------|--------------|
B--------------|--------------|--------------|--------------|
G-4-4-4-4--5-7-|-4-4-4-4--5-7-|-4-4-4-4--5-7-|-4-4-4-4--5-7-|
D-4-4-4-4--5-7-|-4-4-4-4--5-7-|-4-4-4-4--5-7-|-4-4-4-4--5-7-|
A-2-2-2-2--3-5-|-2-2-2-2--3-5-|-2-2-2-2--3-5-|-2-2-2-2--3-5-|
E--------------|--------------|--------------|--------------|

Verse
E--------------|--------------|--------------|--------------|
B--------------|--------------|--------------|--------------|
G-4-4-4-4--5-7-|-4-4-4-4--5-7-|-4-4-4-4--5-7-|-4-4-4-4--5-7-|
D-4-4-4-4--5-7-|-4-4-4-4--5-7-|-4-4-4-4--5-7-|-4-4-4-4--5-7-|
A-2-2-2-2--3-5-|-2-2-2-2--3-5-|-2-2-2-2--3-5-|-2-2-2-2--3-5-|
E--------------|--------------|--------------|--------------|

Chorus
E---------|---------|---------|---------|
B---------|---------|---------|---------|
G-12--9-9-|-12--9-9-|-12--9-9-|-12--9-9-|
D-12--9-9-|-12--9-9-|-12--9-9-|-12--9-9-|
A-10--7-7-|-10--7-7-|-10--7-7-|-10--7-7-|
E---------|---------|---------|---------|

E---------|---------|---------|---------|
B---------|---------|---------|---------|
G-12--9-9-|-12--9-9-|-12--9-9-|-12--9-9-|
D-12--9-9-|-12--9-9-|-12--9-9-|-12--9-9-|
A-10--7-7-|-10--7-7-|-10--7-7-|-10--7-7-|
E---------|---------|---------|---------|

Bridge
E--------------|--------------|--------------|--------------|
B--------------|--------------|--------------|--------------|
G-4------------|-4------------|--------------|--------------|
D-4------------|-4------------|--(Feedback)--|--------------|
A-2------------|-2------------|--------------|--------------|
E--------------|--------------|--------------|--------------|

E--------------|--------------|--------------|--------------|
B--------------|--------------|--------------|--------------|
G--------------|--------------|--------------|--------------|
D--------------|--------------|--------------|-----Pick-----|
A--------------|--------------|--------------|-----Slide----|
E--------------|--------------|--------------|--------------|

Verse
E--------------|--------------|--------------|--------------|
B--------------|--------------|--------------|--------------|
G-4-4-4-4--5-7-|-4-4-4-4--5-7-|-4-4-4-4--5-7-|-4-4-4-4--5-7-|
D-4-4-4-4--5-7-|-4-4-4-4--5-7-|-4-4-4-4--5-7-|-4-4-4-4--5-7-|
A-2-2-2-2--3-5-|-2-2-2-2--3-5-|-2-2-2-2--3-5-|-2-2-2-2--3-5-|
E--------------|--------------|--------------|--------------|

Chorus
E---------|---------|---------|---------|
B---------|---------|---------|---------|
G-12--9-9-|-12--9-9-|-12--9-9-|-12--9-9-|
D-12--9-9-|-12--9-9-|-12--9-9-|-12--9-9-|
A-10--7-7-|-10--7-7-|-10--7-7-|-10--7-7-|
E---------|---------|---------|---------|

E---------|---------|---------|---------|
B---------|---------|---------|---------|
G-12--9-9-|-12--9-9-|-12--9-9-|-12--9-9-|
D-12--9-9-|-12--9-9-|-12--9-9-|-12--9-9-|
A-10--7-7-|-10--7-7-|-10--7-7-|-10--7-7-|
E---------|---------|---------|---------|

Main Riff
E--------------|--------------|--------------|--------------|
B--------------|--------------|--------------|--------------|
G-4-4-4-4--5-7-|-4-4-4-4--5-7-|-4-4-4-4--5-7-|-4-4-4-4--5-7-|
D-4-4-4-4--5-7-|-4-4-4-4--5-7-|-4-4-4-4--5-7-|-4-4-4-4--5-7-|
A-2-2-2-2--3-5-|-2-2-2-2--3-5-|-2-2-2-2--3-5-|-2-2-2-2--3-5-|
E--------------|--------------|--------------|--------------|

E--------------|--------------|--------------|--------------|
B--------------|--------------|--------------|--------------|
G-4-4-4-4--5-7-|-4-4-4-4--5-7-|-4-4-4-4--5-7-|-4-4-4-4--5-7-|
D-4-4-4-4--5-7-|-4-4-4-4--5-7-|-4-4-4-4--5-7-|-4-4-4-4--5-7-|
A-2-2-2-2--3-5-|-2-2-2-2--3-5-|-2-2-2-2--3-5-|-2-2-2-2--3-5-|
E--------------|--------------|--------------|--------------|

Chorus
E---------|---------|---------|---------|
B---------|---------|---------|---------|
G-12--9-9-|-12--9-9-|-12--9-9-|-12--9-9-|
D-12--9-9-|-12--9-9-|-12--9-9-|-12--9-9-|
A-10--7-7-|-10--7-7-|-10--7-7-|-10--7-7-|
E---------|---------|---------|---------|

E---------|---------|---------|---------|
B---------|---------|---------|---------|
G-12--9-9-|-12--9-9-|-12--9-9-|-12--9-9-|
D-12--9-9-|-12--9-9-|-12--9-9-|-12--9-9-|
A-10--7-7-|-10--7-7-|-10--7-7-|-10--7-7-|
E---------|---------|---------|---------|

E---------|---------|---------|---------|
B---------|---------|---------|---------|
G-12--9-9-|-12--9-9-|-12--9-9-|-12--9-9-|
D-12--9-9-|-12--9-9-|-12--9-9-|-12--9-9-|
A-10--7-7-|-10--7-7-|-10--7-7-|-10--7-7-|
E---------|---------|---------|---------|

E---------|---------|---------|---------|
B---------|---------|---------|---------|
G-12--9-9-|-12--9-9-|-12--9-9-|-12--9-9-|
D-12--9-9-|-12--9-9-|-12--9-9-|-12--9-9-|
A-10--7-7-|-10--7-7-|-10--7-7-|-10--7-7-|
E---------|---------|---------|---------|
Tap to rate this tab
# A B C D E F G H I J K L M N O P Q R S T U V W X Y Z