Song name
# A B C D E F G H I J K L M N O P Q R S T U V W X Y Z

Gbh - Sick Boy tab

Intro
G----------------------------------------|
D----------------------------------------|
A-------8-8-------6------8-8-------------|
E----------------------------------------|

Verse
G---------------------|---------------------|---------------------|
D---------------------|---------------------|---------------------|
A-8-8-8-8--6--8-8-8-8-|-8-8-8-8--6--8-8-8-8-|-8-8-8-8--6--8-8-8-8-|
E---------------------|---------------------|---------------------|

G---------------------|---------------------|---------------------|
D---------------------|---------------------|---------------------|
A-8-8-8-8--6--8-8-8-8-|-8-8-8-8--6--8-8-8-8-|-8-8-8-8--6--8-8-8-8-|
E---------------------|---------------------|---------------------|

G---------------------|---------------------|
D---------------------|---------------------|
A-8-8-8-8--6--8-8-8-8-|-8-8-8-8--6--8-8-8-8-|
E---------------------|---------------------|

Chorus
G-----------------------------------------|
D ----------------------------------------|
A-10-10-10-10-11--10-10-10-10-8-8-8-8-6-8-|
E-----------------------------------------|

G-----------------------------------------|
D ----------------------------------------|
A-10-10-10-10-11--10-10-10-10-8-8-8-8-6-8-|
E-----------------------------------------|

G-----------------------------------------|
D ----------------------------------------|
A-10-10-10-10-11--10-10-10-10-8-8-8-8-6-8-|
E-----------------------------------------|

Verse
G---------------------|---------------------|---------------------|
D---------------------|---------------------|---------------------|
A-8-8-8-8--6--8-8-8-8-|-8-8-8-8--6--8-8-8-8-|-8-8-8-8--6--8-8-8-8-|
E---------------------|---------------------|---------------------|

G---------------------|---------------------|---------------------|
D---------------------|---------------------|---------------------|
A-8-8-8-8--6--8-8-8-8-|-8-8-8-8--6--8-8-8-8-|-8-8-8-8--6--8-8-8-8-|
E---------------------|---------------------|---------------------|

G---------------------|---------------------|
D---------------------|---------------------|
A-8-8-8-8--6--8-8-8-8-|-8-8-8-8--6--8-8-8-8-|
E---------------------|---------------------|

Chorus
G-----------------------------------------|
D ----------------------------------------|
A-10-10-10-10-11--10-10-10-10-8-8-8-8-6-8-|
E-----------------------------------------|

G-----------------------------------------|
D ----------------------------------------|
A-10-10-10-10-11--10-10-10-10-8-8-8-8-6-8-|
E-----------------------------------------|

G-----------------------------------------|
D ----------------------------------------|
A-10-10-10-10-11--10-10-10-10-8-8-8-8-6-8-|
E-----------------------------------------|

Bridge
G-----------------------|-----------------------|-----------------------|
D-----------------------|-----------------------|-----------------------|
A-10-8-8--10--10-11--10-|-10-8-8--10--10-11--10-|-10-8-8--10--10-11--10-|
E-----------------------|-----------------------|-----------------------|

Verse
G---------------------|---------------------|---------------------|
D---------------------|---------------------|---------------------|
A-8-8-8-8--6--8-8-8-8-|-8-8-8-8--6--8-8-8-8-|-8-8-8-8--6--8-8-8-8-|
E---------------------|---------------------|---------------------|

G---------------------|---------------------|---------------------|
D---------------------|---------------------|---------------------|
A-8-8-8-8--6--8-8-8-8-|-8-8-8-8--6--8-8-8-8-|-8-8-8-8--6--8-8-8-8-|
E---------------------|---------------------|---------------------|

G---------------------|---------------------|---------------------|
D---------------------|---------------------|---------------------|
A-8-8-8-8--6--8-8-8-8-|-8-8-8-8--6--8-8-8-8-|-8-8-8-8--6--8-8-8-8-|
E---------------------|---------------------|---------------------|

G---------------------|---------------------|---------------------|
D---------------------|---------------------|---------------------|
A-8-8-8-8--6--8-8-8-8-|-8-8-8-8--6--8-8-8-8-|-8-8-8-8--6--8-8-8-8-|
E---------------------|---------------------|---------------------|

Chorus
G-----------------------------------------|
D ----------------------------------------|
A-10-10-10-10-11--10-10-10-10-8-8-8-8-6-8-|
E-----------------------------------------|

G-----------------------------------------|
D ----------------------------------------|
A-10-10-10-10-11--10-10-10-10-8-8-8-8-6-8-|
E-----------------------------------------|

G-----------------------------------------|
D ----------------------------------------|
A-10-10-10-10-11--10-10-10-10-8-8-8-8-6-8-|
E-----------------------------------------|

Verse
G---------------------|---------------------|---------------------|
D---------------------|---------------------|---------------------|
A-8-8-8-8--6--8-8-8-8-|-8-8-8-8--6--8-8-8-8-|-8-8-8-8--6--8-8-8-8-|
E---------------------|---------------------|---------------------|

G---------------------|---------------------|---------------------|
D---------------------|---------------------|---------------------|
A-8-8-8-8--6--8-8-8-8-|-8-8-8-8--6--8-8-8-8-|-8-8-8-8--6--8-8-8-8-|
E---------------------|---------------------|---------------------|

G---------------------|---------------------|
D---------------------|---------------------|
A-8-8-8-8--6--8-8-8-8-|-8-8-8-8--6--8-8-8-8-|
E---------------------|---------------------|

Chorus
G-----------------------------------------|
D ----------------------------------------|
A-10-10-10-10-11--10-10-10-10-8-8-8-8-6-8-|
E-----------------------------------------|

G-----------------------------------------|
D ----------------------------------------|
A-10-10-10-10-11--10-10-10-10-8-8-8-8-6-8-|
E-----------------------------------------|

G-----------------------------------------|
D ----------------------------------------|
A-10-10-10-10-11--10-10-10-10-8-8-8-8-6-8-|
E-----------------------------------------|

Verse
G---------------------|---------------------|---------------------|
D---------------------|---------------------|---------------------|
A-8-8-8-8--6--8-8-8-8-|-8-8-8-8--6--8-8-8-8-|-8-8-8-8--6--8-8-8-8-|
E---------------------|---------------------|---------------------|

G---------------------|---------------------|---------------------|
D---------------------|---------------------|---------------------|
A-8-8-8-8--6--8-8-8-8-|-8-8-8-8--6--8-8-8-8-|-8-8-8-8--6--8-8-8-8-|
E---------------------|---------------------|---------------------|

G---------------------|---------------------|---------------------|
D---------------------|---------------------|---------------------|
A-8-8-8-8--6--8-8-8-8-|-8-8-8-8--6--8-8-8-8-|-8-8-8-8--6--8-8-8-8-|
E---------------------|---------------------|---------------------|

G---------------------|
D---------------------|
A-8-8-8-8--6--8-8-8-8-|
E---------------------|
Tap to rate this tab
# A B C D E F G H I J K L M N O P Q R S T U V W X Y Z