Song name
# A B C D E F G H I J K L M N O P Q R S T U V W X Y Z

Gbh - Alcohol tab

Pay no mind to my last tab, I listened to the song again and realized it was completely 
this is how I really play it.

 listen to song for timing
Intro
e-------------------------------------------------------------------|
b-------------------------------------------------------------------|
g--99-99999---------------------------------------------------------|
d--99-99999--9-9-9-99999--12-121212121212--7-7-7-7-7-7--------------|
a--77-77777--9-9-9-99999--12-121212121212--7-7-7-7-7-7--------------|
E------------7-7-7-77777--10-101010101010--5-5-5-5-5-5--------------|
      .....        .....      . . . . . .


       (every other time this riff is played the 7th fret E-string chord {B} isn't palm 
listen to the song, you'll figure it out.)

verse

e----------------------------------------------------------------|
b----------------------------------------------------------------|
g--9-999999------------------------------------------------------|
d--9-999999--9-999999--12-121212121212--7-7-7-7-7-7--------------|
a--7-777777--9-999999--12-121212121212--7-7-7-7-7-7--------------|
E------------7-777777--10-101010101010--5-5-5-5-5-5--------------|
     ......    ......      . . . . . .

chorus:
e------------------------------------------------------------|
b------------------------------------------------------------|
g---999999---------------------------------------------------|
d---999999---999999---121212121212--7-7-7-7-7-7--------------|
a---777777---999999---121212121212--7-7-7-7-7-7--------------|
E------------777777---101010101010--5-5-5-5-5-5--------------|

sorry about my last tab I got mixed up about the chords and was one step off this one 
much better. (My last tab might not have even showed up on the website anyway, which I 
it didn't) but anyway I'm really new at this so sorry if this tab sucks but I gave it a shot.
Tap to rate this tab
# A B C D E F G H I J K L M N O P Q R S T U V W X Y Z