Song name
# A B C D E F G H I J K L M N O P Q R S T U V W X Y Z

Gbh - Wardogs tab

Band- G.B.H
Song - Wardogs
Album - City Baby Attacked By Rats

Tabbed By: SumFX (Tyler Freear)

Tuning: Standard (E A D G B E)

Great Song From A Really Awesome Record!

/=Slide

Intro/Verse
|---------------------------------|
|---------------------------------|
|-----------------------------999-|
|-11111111-99-777-11111111-99-999-|
|-11111111-99-777-11111111-99-777-|
|-9-9-9-9--77-555-9-9-9-9--77-----|

Chorus
|----x4---------|----------------------------------|
|---------------|----------------------------------|
|-9999----------|----------------------------------|
|-9999-1111-999-|-8/9-8/9-8/9-8/9-8/9-8/9-8/9-8/9--|
|-7777-1111-999-|-8/9-8/9-8/9-8/9-8/9-8/9-8/9-8/9--|
|------9-9--777-|-6/7-6/7-6/7-6/7-6/7-6/7-6/7-6/7--|

Bridge
|----x3-------|---------|
|-------------|---------|
|-------------|---------|
|-9-xxxxxxxx--|-9-9-9-9-|
|-9-xxxxxxxx--|-9-9-9-9-|
|-7-xxxxxxxx--|-7-7-7-7-|

Outro
|-------------------------------|
|-------------------------------|
|-----------------------------9-|
|-11111111-99-777-11111111-99-9-|
|-11111111-99-777-11111111-99-7-|
|-9-9-9-9--77-555-9-9-9-9--77---|

E5
|-------------------|
|-------------------|
|-9-----------------|
|-9-----------------|
|-7-----------------|
|-------------------|

Intro x2
Verse x2
Chorus
Verse X2
Chorus
Verse X2
Chorus
Bridge
Intro X2
Verse X2
Chorus 
Outro
E5

Thats All :)
Tap to rate this tab
 
# A B C D E F G H I J K L M N O P Q R S T U V W X Y Z