Song name
# A B C D E F G H I J K L M N O P Q R S T U V W X Y Z

Gbh - Generals tab

Band - G.B.H
Song - Generals
Album - Leather, Bristles, Studs, And Acne 

Tabbed By: Tyler Freear (SumFX)

Tuning: Standard (E A D G B E)

Awesome Song, Probably One Of The Best (And Underrated) Punk Songs
Of All Time.

Key
h= Hammer On

Intro/Am
|-0-----------|
|-1-----------|
|-2-----------|
|-2-----------|
|-0-----------|
|-------------|

Intro 2
|-----------------------3-3-|
|-1-1-1--0--h1--1-1-1---0-0-|
|-2-2-2--0--h2--0-0-0-0-0-0-| x4
|-2-2-2--0--h2--2-2-2-0-0-0-|
|-0-0-0---------3-3-3-0-2-2-|
|---------------------0-3-3-|

|-0---|
|-1---|
|-2---|
|-2---|
|-0---|
|-----|

Pre Verse
|-0-----------|
|-1-----------|
|-2-----------|
|-2-----------|
|-0-----------|
|-------------|

|-0----0----3--|
|-1----1----0--|
|-2----0----0--| x4
|-2----2----0--|
|-0----3----2--|
|-----------3--|

Verse/Chorus/Bridge
|-0-0-0-0--0-0--3-3-3-3-|
|-1-1-1-1--1-1--0-0-0-0-|
|-2-2-2-2--0-0--0-0-0-0-|
|-2-2-2-2--2-2--0-0-0-0-|
|-0-0-0-0--3-3--2-2-2-2-|
|---------------3-3-3-3-|

Pre Chorus
|-0-----0-----0-----0--|
|-0-----0-----0-----0--|
|-1-----1-----1-----1--|
|-2-----2-----2-----2--|
|-2-----2-----2-----2--|
|-0-----0-----0-----0--|

Structure
Intro
Intro 2
Pre Verse
Verse x8
Pre Chorus 
Verse x4
Pre Chorus
Chorus x8
Am
Pre Verse
Verse x4
Pre Chorus
Chorus x8
Bridge x4
Verse x5
Pre Chorus
Chorus x8
Am

Really Easy But Really Awesome!
Rate & Comment Please.
Tap to rate this tab
 
# A B C D E F G H I J K L M N O P Q R S T U V W X Y Z