Song name
# A B C D E F G H I J K L M N O P Q R S T U V W X Y Z

Gbh - Big Women tab

        One of the best from G.B.H.

Main riff
e|-------------------|
B|-------------------|
G|-------------------|
D|-4-4-4-----4-4-2-2-| x3
A|-2-2-2-2-2-2-2-0-0-|
E|-------0-0---------|

e|-------------|
B|-------------|
G|-------------|
D|-4-4-4-----4-| x1
A|-2-2-2-2-2-2-|
E|-------0-0---|

The solo is pretty much just on the D and G on the 7th, 9th, and 12th frets. I 
don't exactly know it.
Tap to rate this tab
 
# A B C D E F G H I J K L M N O P Q R S T U V W X Y Z