Song name
# A B C D E F G H I J K L M N O P Q R S T U V W X Y Z

Gbh - I Am The Hunted tab

Intro
e|---------------------------|
B|---------------------------|
G|-12-11--12-11--14-12-11h12-| x2
D|-0--0---0--0---0--0--0-----|
A|---------------------------|
E|---------------------------|

e|-----------------------------------------|
B|-----------------------------------------| x2
G|-12-12-12-12-12-12-12-12-9-9-9-9-9-9-9-9-| 
D|-12-12-12-12-12-12-12-12-9-9-9-9-9-9-9-9-|
A|-----------------------------------------|
E|-----------------------------------------|

e|----------------------------------------------|
B|----------------------------------------------| x2
G|-12-12-11-11-11-11-12-12-11-11-11-11-14-12-11-|
D|-0--0--0--0--0--0--0--0--0--0--0--0--0--0--0--|
A|----------------------------------------------|
E|----------------------------------------------|
PM..............................................

e|-----------------------------------------|
B|-----------------------------------------| x2
G|-12-12-12-12-12-12-12-12-9-9-9-9-9-9-9-9-| 
D|-12-12-12-12-12-12-12-12-9-9-9-9-9-9-9-9-|
A|-----------------------------------------|
E|-----------------------------------------|

e|---------|
B|---------|
G|-12~~~~~-|
D|-0-------|
A|---------|
E|---------|

Verse
e|--------------------------|
B|--------------------------|
G|--------------------------|
D|-9-9-9-9-7-9--9-9-9-9-7-9-|
A|-7-7-7-7-5-7--7-7-7-7-5-7-|
E|--------------------------|

e|----------------------------|
B|----------------------------|
G|----------------------------|
D|-7-7-7-7-12-12--9-9-9-9-7-9-|
A|-5-5-5-5-10-10--7-7-7-7-5-7-|
E|----------------------------|

Chorus 
e|--------------------------------|
B|--------------------------------|
G|--------------------------------|
D|---------12-9-7-----------------|
A|-9-9-9-9-10-7-5-7-7-7-7-7-7-7-7-|
E|-7-7-7-7--------5-5-5-5-5-5-5-5-|

e|--------------------------|
B|--------------------------|
G|--------------------------|
D|-9-9-9-9-7-9--9-9-9-9-7-9-|
A|-7-7-7-7-5-7--7-7-7-7-5-7-|
E|--------------------------|
Tap to rate this tab
 
# A B C D E F G H I J K L M N O P Q R S T U V W X Y Z