Guitaretab - guitar tabs
Song name
# A B C D E F G H I J K L M N O P Q R S T U V W X Y Z

Gbh - City Baby Attacked By Rats tab

this is 100% correct. it\'s played really fast as well

E-------------|
B-------------|
G-------------|
D-7-----------|
A-7-----------|
E-5-----------|
intro..it\'s not that hard to figure out the rythm.

verse
E---------------------------------------------------------|
B---------------------------------------------------------|
G------------------9-9-9-7-7-7----------------------------|
D-7-7-7-9-10-10-10-9-9-9-7-7-7----------------------------|
A-7-7-7-9-10-10-10-7-7-7-5-5-5----------------------------|
E-5-5-5-7--8--8--8----------------------------------------|
repeat that however many times the verse is played
[ Tab from: http://www.guitaretab.com/g/gbh/50325.html ]
chorus
E---------------------------------------------------------|
B---------------------------------------------------------|
G---------------------------------------------------------|
D-10/7-7-10/7-7-10/7-7-12-12------------------------------|
A-10/7-7-10/7-7-10/7-7-12-12------------------------------|
E--8/5-5--8/5-5--8/5-5-10-10------------------------------|

outro
E-----------------------------------------------------------|
B-----------------------------------------------------------|
G-----------------------------------------------------------|
D-7---------------------------------------------------------|
A-7---------------------------------------------------------|
E-5---------------------------------------------------------|
towards the end it\'s played on some off beats

the order of the song ain\'t hard.
but i\'m sure it\'s all correct
Related for City Baby Attacked By Rats tab
Advertisement will be closed in 10 seconds