Song name
# A B C D E F G H I J K L M N O P Q R S T U V W X Y Z

Gbh - Give Me Fire tab

This tab may require you to do some string bending, hammering, palm muting, pick 
or other guitar techniques you will be able to figure out by listening to the song. You may 
have to play a chord shown more than once in sequence. This tab are in standard guitar tuning.

You can find more great punk/oi tabs on my site:
BLACKJACKAL.PHPNET.US

Intro:

e|-----------|
B|-----------|
G|-4---------|
D|-2-0-2-0-2-|
A|-----------|
E|-----------|

Verse:

e|-------|
B|-------|
G|-4-2---|
D|-2-0-2-|
A|-----0-|
E|-------|

Chorus:

e|---------|
B|---------|
G|---------|
D|---2-5-4-|
A|-5-0-3-2-|
E|-3-------|

Note struck before first "Give me Fire" echo's

e|---|
B|---|
G|---|
D|-2-|
A|---|
E|---|

Solo:

e|-------    -----------    ---|
B|-------    -----------    ---|
G|-------    -----------    ---|
D|------- x2 -7-5------- x2 ---|
A|-7-0---    -----7-0---    ---|
E|-----5-    ---------5-    -5-|
Tap to rate this tab
# A B C D E F G H I J K L M N O P Q R S T U V W X Y Z