Song name
# A B C D E F G H I J K L M N O P Q R S T U V W X Y Z

Gbh - Punk Junkies tab

About time somebody wrote a tab for this song, its is nowhere else but here.
Its really simple and took me like 5 minutes to throw together.

Intro
e|--------------|
B|--------------|
G|--------------|<---------4 times
D|--------------|
A|--7-6---------|
E|-7---7-7-7-7-7|


e|-------------------|
A|-------------------|
D|---------7xx-------|
G|-5xxxxxx-7xx-7xx-9-|<--------Twice
B|-5xxxxxx-5xx-7xx-9-|
E|-3xxxxxx-----5xx-7-|


Verse
e|-------------------------|
B|-------------------------|
G|-------------------------|<-------4times
D|-------------------------|
A|--7-6--8-8-8-8-8-8-8-8-8-|
E|-7---7-------------------|


the rest u can figure out with what i gave you. the only thing missing is the solo and 
outro is made up of the chords from the verse.
Rate this! Mat
Tap to rate this tab
 
# A B C D E F G H I J K L M N O P Q R S T U V W X Y Z