Song name
# A B C D E F G H I J K L M N O P Q R S T U V W X Y Z

Gemini Syndrome - Basement tab

Gemini Syndrome: Basement

Transcribed by: mysticguitar77

YouTube Channel: MysticGuitar77

Date last modified: November 1, 2013

Tuning: Drop B (B,F#,B,E,G#,C#)

Riff 1
C#|-------------------|
G#|-------------------|
 E|-------------------|
 B|-0-0--x-0--0-5-5-5-|
F#|-0-0--x-0--0-3-3-3-|
 B|-0-0--x-0--0-3-3-3-|

Play Riff 1 x10   "Color-coded blasphemy..."

Riff 2   "I never wanted this, I never asked for it..."
C#|-------------------------------------------------------|
G#|-------------------------------------------------------|
 E|-------------------------------------------------------|
 B|-8-8-8-8-8-8-8-8-8-8-8-8-8-8-8-8-8-/-10-10-10-10/12-12-|
F#|-8-8-8-8-8-8-8-8-8-8-8-8-8-8-8-8-8-/-10-10-10-10/12-12-|
 B|-8-8-8-8-8-8-8-8-8-8-8-8-8-8-8-8-8-/-10-10-10-10/12-12-|

C#|-------------------------|
G#|-------------------------|
 E|-------------------------|
 B|-12h15-15-15-15-15-10h12-|
F#|-12h15-15-15-15-15-10h12-|
 B|-12h15-15-15-15-15-10h12-|

C#|-------------------------|
G#|-------------------------|
 E|-----7b------7b----------|
 B|-----x-------x-----5-5-5-| x2
F#|-0-0-5b--0-0-5b--0-3-3-3-|
 B|-0-0-----0-0-----0-3-3-3-|
    * *     * *

Play Riff 2 x1.5   "But this is what you gave me..."
Play Riff 1 x8   "Stranger than a massacre..."
Play Riff 2 x2   "I never wanted this, I never asked for it..."

Fill   "...what you gave me!"
C#|--------------|
G#|--------------|
 E|--------------|
 B|-0~-----------|
F#|-0~-----------|
 B|-0~-----------|

Riff 3 (clean)   "I could care less about the world sometimes..."
C#|-0---------3-------|
G#|-3---------6-------|
 E|-2---------5-------|
 B|-0---------3-------| just the chords, you can figure out the 
F#|-0---------3-------| strumming pattern on your own
 B|-0---------3-------|

Play Riff 3 x3   "I'll see you on the other side..."

Fill
C#|------------------------------|
G#|------------------------------|
 E|------------------------------|
 B|------------------------------|
F#|------------------------------|
 B|-0-0-0-0-0-0-0-0-0-3-3-3-/16~-|

Riff 4   "Nothing ever takes away the shit that I see everyday..."
C#|---------------------------------|
G#|---------------------------------|
 E|---------------------------------|
 B|-0-0-0-0-0-0-0-0-0-5-5-5-5-5-5-5-|
F#|-0-0-0-0-0-0-0-0-0-3-3-3-3-3-3-3-|
 B|-0-0-0-0-0-0-0-0-0-3-3-3-3-3-3-3-|

Play Riff 4 x4   "So long, I'm f***ing gone!!"
Play Riff 2 x2   "I never wanted this, I never asked for it..."
                  (ending bit gets played 4 times instead just twice)

Enjoy!!
Tap to rate this tab
 
# A B C D E F G H I J K L M N O P Q R S T U V W X Y Z