Song name
# A B C D E F G H I J K L M N O P Q R S T U V W X Y Z

Gemini Syndrome - Stardust tab

Gemini Syndrome: Stardust

Transcribed by: mysticguitar77

YouTube Channel: MysticGuitar77

Date last modified: November 1, 2013

Tuning: Drop B (B,F#,B,E,G#,C#)

Riff 1
C#|---------------------------------------------------------------|
G#|---------------------------------------------------------------|
 E|---------------------------------------------------------------|
 B|-----10-----------------------------10-------------------------|
F#|-----8------------------------------8--------------------------|
 B|-0-0----10-10-0--10-10-0--10-12-0-0----10-10-0--10-10-0--12-13-|
    * *                            * *

C#|------------------------------------------------------------|
G#|------------------------------------------------------------|
 E|------------------------------------------------------------|
 B|-----10-----------------------------------------------------|
F#|-----8------------------------------11-11-11-11p10----------|
 B|-0-0----10-10-0--10-10-0--10-12-0-0----------------13-13-13-|
    * *                            * *

Play Riff 1 x2

Riff 2   "I know this place, it smells like innocence lost..."
C#|-----------------------------------------------------|
G#|-----------------------------------------------------|
 E|-----------------------------------------------------|
 B|-----------------------------------------------------|
F#|-----8---------------8-----------------8-------------|
 B|-0-0----0--0--0--0-0----0--0-12-13-0-0----0--0-10-12-|
    * *             * *               * *

C#|-----------------------------|
G#|-----------------------------|
 E|-----------------------------|
 B|-----------------------------|
F#|-----11-11-11-11p10----------|
 B|-0-0----------------13-13-13-|
    * *

Play Riff 2 x2   "We left the traces of sins we bought..."

Riff 3   "But I wouldn't change a thing..."
C#|----------------------|
G#|----------------------|
 E|----------------------|
 B|-3~--------1~-----\\\-|
F#|-3~--------1~-----\\\-|
 B|-3~--------1~-----\\\-|

C#|---------------------------------------------------------|
G#|---------------------------------------------------------|
 E|---------------------------------------------------------|
 B|---------------------------------------------------------|
F#|-0--0-0--0-0-0-0-0-0--0--0-0-0--0-0--0-0-0-0-0-0--0--0-0-|
 B|-0--0-0--0-0-0-0-0-0--0--0-0-0--0-0--0-0-0-0-0-0--0--0-0-|
    *  * *  * * * * * *  *  * * *  * *  * * * * * *  *  * *

         "It's just a waking dream..."
C#|-----------|
G#|-----------|
 E|-----------|
 B|-3~--------|
F#|-3~--------|
 B|-3~--------|

Riff 4   "Look at the wake from the stardust..."
C#|---------------------------------------------------------------------|
G#|---------------------------------------------------------------------|
 E|---------------------------------------------------------------------|
 B|-8-8-8-8-8-8-8-8-3-3-3-3-3-3-3-3-7-7-7-7-7-7-7-0-0-0-0-10-10-10-10-0-| x2
F#|-8-8-8-8-8-8-8-8-3-3-3-3-3-3-3-3-7-7-7-7-7-7-7-0-0-0-0-10-10-10-10-0-|
 B|-8-8-8-8-8-8-8-8-3-3-3-3-3-3-3-3-7-7-7-7-7-7-7-0-0-0-0-10-10-10-10-0-|

C#|---------------------------|
G#|---------------------------|
 E|---------------------------|
 B|-8-8-8-8-8-8-8-0-10~---11~-|
F#|-8-8-8-8-8-8-8-0-10~---11~-|
 B|-8-8-8-8-8-8-8-0-10~---11~-|

Play Riff 1 x1
Play Riff 2 x2   "I know this face, it's so familiar..."
Play Riff 3 x1   "Now I can't recall a thing..."
Play Riff 4 x1   "Look at the wake from the stardust..."

Riff 5
C#|---------------------------|
G#|---------------------------|
 E|---------------------------|
 B|---------------------------|
F#|-0--0-0-0--0-0-0-0--0--0-0-|
 B|-0--0-0-0--0-0-0-0--0--0-0-|
    *  * * *  * * * *  *  * *

Play Riff 5 x8   "Praise to the memory living inside of me..."

Riff 6   "Lusting and gluttony so unbecoming..."
C#|---------------------------|
G#|---------------------------|
 E|---------------------------|
 B|---------------------------|
F#|---------------------------|
 B|-0--0-0-0--0-0-0-0--0--0-0-|

Play Riff 6 x4

Riff 7   "But you won't be left behind..."
C#|---------------------------------------|
G#|---------------------------------------|
 E|---------------------------------------|
 B|-0-0-0-0-0-0-0-0-0-0-0-0-0-0-0-0-0-0-0-|
F#|-0-0-0-0-0-0-0-0-0-0-0-0-0-0-0-0-0-0-0-|
 B|-0-0-0-0-0-0-0-0-0-0-0-0-0-0-0-0-0-0-0-|

Riff 8 (clean, let all notes ring out)   "Look at the wake..."
C#|------------------------------------------------------------|
G#|------------------------------------------------------------|
 E|------------------------------------------------------------|
 B|-------12----------7----------11----------3p0---------14\12-|
F#|----8-----------3----------7-----------0----------10--------|
 B|-8-----------3----------7-----------0---------10------------|

Play Riff 8 x3.5
Play Riff 4 x1   "Look at the, look at the wake..."
Play Riff 1 x1

Ending
C#|-----------------------------|
G#|-----------------------------|
 E|-----------------------------|
 B|-----------------------------|
F#|-----11-11-11-11p10----------|
 B|-0-0----------------13-13-13-|
    * *

Enjoy!!

Tap to rate this tab
# A B C D E F G H I J K L M N O P Q R S T U V W X Y Z