Song name
# A B C D E F G H I J K L M N O P Q R S T U V W X Y Z

Gemini Syndrome - Pleasure And Pain tab

Gemini Syndrome: Pleasure And Pain

Transcribed by: mysticguitar77

YouTube Username: MysticGuitar77

Date last modified: November 6, 2013

Tuning: Drop A (A,E,A,D,F#,B)

Riff 1
 B|---------------------------------|
F#|---------------------------------|
 D|---------------------------------|
 A|-5-------6-----6-5-----3---5---3-|
 E|---------------------------------|
 A|---5-5-5---5-5-----5-5---5---5---|

Play Riff 1 x4 (for the first 2 times through, palm-mute the entire riff,
                3rd time through begin releasing the palm-mute)

Riff 2
 B|---------------------------------|
F#|---------------------------------|
 D|---------------------------------|
 A|---------------------------------|
 E|-5-------6-----6-5-----3---5---3-|
 A|---0-0-0---0-0-----0-0---0---0---|

Play Riff 2 x4

Riff 3
 B|-----------------------------------------------------------------------|
F#|-----------------------------------------------------------------------|
 D|---------------------------------------------------------------8-8-8-8-|
 A|-------13-------13-------13-------13-------13-------13---------x-x-x-x-|
 E|-0-0-0-11-0-0-0-11-0-0-0-11-0-0-0-11-0-0-0-11-0-0-0-11-0-0-0-0-6-6-6-6-|
 A|-0-0-0----0-0-0----0-0-0----0-0-0----0-0-0----0-0-0----0-0-0-0---------|
    * * *    * * *    * * *    * * *    * * *    * * *    * * * *

Play Riff 3 x6   "Infinite, the ultimate expression of who I am..."
                  (last time through gets cuts short)

Riff 4   "I am alive inside of your truth..."
 B|-------------------------------------------------------------------|
F#|-------------------------------------------------------------------|
 D|-------------------------------------------------------------------|
 A|-0-0-0-0-0-0-0-0-1-1-1-1-1-1-1-1-3-3-3-3-3-3-3-3-3-5-5-5-5-5-5-5-5-|
 E|-0-0-0-0-0-0-0-0-1-1-1-1-1-1-1-1-3-3-3-3-3-3-3-3-3-5-5-5-5-5-5-5-5-|
 A|-0-0-0-0-0-0-0-0-1-1-1-1-1-1-1-1-3-3-3-3-3-3-3-3-3-5-5-5-5-5-5-5-5-|

 B|-----------------------------------------------------|
F#|-----------------------------------------------------|
 D|-----------------------------------------------------|
 A|-0-0-0-0-0-0-0-0-1-1-1-1-1-1-1-1-3-3-3-3-3-3-3-3-----|
 E|-0-0-0-0-0-0-0-0-1-1-1-1-1-1-1-1-3-3-3-3-3-3-3-3-----|
 A|-0-0-0-0-0-0-0-0-1-1-1-1-1-1-1-1-3-3-3-3-3-3-3-3-1b3-|

Riff 5   "We are all the light of the sun and the moon..."
 B|---------------------------------------------------------|
F#|---------------------------------------------------------|
 D|---------------------------------------------------------|
 A|-8-8-8-8-8-8-8-8-8-8-8-8-8-8-8-8-10-10-10-10-10-10-10-10-|
 E|-8-8-8-8-8-8-8-8-8-8-8-8-8-8-8-8-10-10-10-10-10-10-10-10-|
 A|-8-8-8-8-8-8-8-8-8-8-8-8-8-8-8-8-10-10-10-10-10-10-10-10-|

 B|---------------------------------------------------------|
F#|---------------------------------------------------------|
 D|---------------------------------------------------------|
 A|-10-10-10-10-10-10-10-10---------------------------------|
 E|-10-10-10-10-10-10-10-10-5-------6-----6-5-----3---5---3-|
 A|-10-10-10-10-10-10-10-10---0-0-0---0-0-----0-0---0---0---|
                              * * *   * *     * *   *   *

 B|-----------------------------------------------------------------|
F#|-----------------------------------------------------------------|
 D|-----------------------------------------------------------------|
 A|---------------------------------8-8-8-8-8-8-8-8-8-8-8-8-8-8-8-8-|
 E|-3-------5-----6-5-----3---5---3-8-8-8-8-8-8-8-8-8-8-8-8-8-8-8-8-|
 A|---3-3-3---3-3-----3-3---3---3---8-8-8-8-8-8-8-8-8-8-8-8-8-8-8-8-|
      * * *   * *     * *   *   *

 B|-----------------------------------------------------------------|
F#|-----------------------------------------------------------------|
 D|-----------------------------------------------------------------|
 A|-5-5-5-5-5-5-5-5-5-5-5-5-5-5-5-5---------------------------------|
 E|-5-5-5-5-5-5-5-5-5-5-5-5-5-5-5-5-5-------6-----6-5-----3---5---3-|
 A|-5-5-5-5-5-5-5-5-5-5-5-5-5-5-5-5---0-0-0---0-0-----0-0---0---0---|
                                      * * *   * *     * *   *   *

 B|---------------------------------------------------------------------|
F#|---------------------------------------------------------------------|
 D|---------------------------------------------------------------------|
 A|---------------------------------8-8-8-8-8-8-8-8-8-8-8-8-8-8-8-8-10~-|
 E|-5-------6-----6-5-----3---5---3-8-8-8-8-8-8-8-8-8-8-8-8-8-8-8-8-10~-|
 A|---3-3-3---3-3-----3-3---3---3---8-8-8-8-8-8-8-8-8-8-8-8-8-8-8-8-10~-|
      * * *   * *     * *   *   *

Play Riff 3 x5   "Permissive, the fatal flaw of a forgiving god..."
Play Riff 4 x1   "I am alive inside of your truth..."
Play Riff 5 x1   "We are all the light of the sun and the moon..."
                  (continue strumming the last chord 16 times instead of
                   letting it ring)

Riff 6
 B|------------------------------------------------------------------------|
F#|------------------------------------------------------------------------|
 D|-7-7-7-7----7--7--7-7-7-7------------7-7-7-7----7--7--7-7-7-7-----------|
 A|-6-6-6-6----6--6--6-6-6-6------------6-6-6-6----6--6--6-6-6-6-----------|
 E|-5-5-5-5----5--5--5-5-5-5------------5-5-5-5----5--5--5-5-5-5-----------|
 A|-0-0-0-0----0--0--0-0-0-0----3b--1b--0-0-0-0----0--0--0-0-0-0----1b--1b-|

Play Riff 6 x2   "Deranged, and a sense of abandon..."

Riff 7
 B|-----------------------------------------------------------------|
F#|-----------------------------------------------------------------|
 D|-----------------------------------------------------------------|
 A|-----------------------------------------------------------------|
 E|---------1-----------1-------------------1-----------1---x-x-x-x-|
 A|-0-2-3-0---2-0-2-3-0---2-0-1-2-3-0-2-3-0---2-0-2-3-0---2-x-x-x-x-|

 B|-----------------------------------------------------------------|
F#|-----------------------------------------------------------------|
 D|-----------------------------------------------------------------|
 A|-----------------------------------------------------------------|
 E|---------1-----------1-------------------1-----------1-----------|
 A|-0-2-3-0---2-0-2-3-0---2-0-1-2-3-0-2-3-0---2-0-2-3-0---2-0-3-2-1-|

Play Riff 7 x2

Break   "We are all the light of the sun and the moon..."
 B|-----------------------------|
F#|-----------------------------|
 D|-----------------------------|
 A|-----------------8~------10~-| picks up after this with the palm muted
 E|-x-x-x-x-x-x-x-x-8~------10~-| part of the chorus riff
 A|-x-x-x-x-x-x-x-x-8~------10~-|

Play Riff 5 x1.5   "You are just a reflection of all that you see..."

Riff 8   "Pleasure and pain!!"
 B|--------------------------------------------------------------|
F#|--------------------------------------------------------------|
 D|--------------------------------------------------------------|
 A|-------13-------13-------13-------13-------13-------13--------|
 E|-0-0-0-11-0-0-0-11-0-0-0-11-0-0-0-11-0-0-0-11-0-0-0-11--------|
 A|-0-0-0----0-0-0----0-0-0----0-0-0----0-0-0----0-0-0----3b--1b-|
    * * *    * * *    * * *    * * *    * * *    * * *

 B|--------------------------------------------------------------|
F#|--------------------------------------------------------------|
 D|--------------------------------------------------------------|
 A|-------13-------13-------13-------13-------13-------13--------|
 E|-0-0-0-11-0-0-0-11-0-0-0-11-0-0-0-11-0-0-0-11-0-0-0-11--------|
 A|-0-0-0----0-0-0----0-0-0----0-0-0----0-0-0----0-0-0----1b--1b-|
    * * *    * * *    * * *    * * *    * * *    * * *

Enjoy!!

Tap to rate this tab
 
# A B C D E F G H I J K L M N O P Q R S T U V W X Y Z