Song name
# A B C D E F G H I J K L M N O P Q R S T U V W X Y Z

Gene Clark - All I Want tab

Title: All I Want
Artist: Dial-7
Album: Never Enough Time
Tabbed by Momo

Standard Tuning: EADGBE (440Hz) unless you're playing along w/ the cd.
In that case calibrate your tuner to 433Hz, standard: EADGBE

Intro
1:---------------------------|     |--------------------------|
2:------------------------5--|     |--------------------------|
3:-----5-7--5---4---7-5------|     |-----5-7--5---4---7-5-4---|
4:---7--------7---5-----7----| x3  |---7--------7---5-------5-|
5:-5-------------------------|     |-5------------------------|
6:---------------------------|     |--------------------------|

Riff A (x4)
1:-----------------------------------------------------------|
2:-----------------------------------------------------------|
3:------------------------5-4-3------------------------------|
4:----3--------------5-6-----------3-------------7-6---------|
5:--5---5-3--5-6-7---3-4---------5---5-3--5-6-7--5-4--5-4-3--|
6:-----------3-4-5------------------------3-4-5-------3-2-1--|

Riff B (x2)
1:-------------------------------------------------|
2:-------------------------------------------------|
3:-7--7--7--7--5--5--5--5--------------7--7--7--7--|
4:-7--7--7--7--5--5--5--5--5--5--5--5--7--7--7--7--|
5:-5--5--5--5--3--3--3--3--5--5--5--5--5--5--5--5--|
6:-------------------------3--3--3--3--------------|

Riff C
1:----------------------------------|      |----------------|
2:----------------------------------|      |----------------|
3:-4-4-4-5-5-5-7-7-7-7-7-7-7-7-7-7--|      |-4-4-4-5-5-5----|
4:-4-4-4-5-5-5-7-7-7-7-7-7-7-7-7-7--| x3   |-4-4-4-5-5-5----|
5:-2-2-2-3-3-3-5-5-5-5-5-5-5-5-5-5--|      |-2-2-2-3-3-3----|
6:----------------------------------|      |----------------|
  PM-------------------------------|        PM--------------|

Riff A (x4)
Riff B (x2)
Riff C

Riff D
1:-----------------------------------------------------|
2:------------------------5----------------------------|
3:-----5-7--5---4---7-5----------5-7--5---4---7-5-4----|
4:---7--------7---5-----7------7--------7---5-------5--|
5:-5-------------------------5-------------------------|
6:-----------------------------------------------------|

Riff B (x2)

Riff E (x2)
1:--------------------------------------------------------------------|
2:--------------------------------------------------------------------|
3:-7-7-7-7-7-7-7---5-5-5-5-5-5-5-------------------7-7-7-7-7-7-7------|
4:-7-7-7-7-7-7-7-0-5-5-5-5-5-5-5-0-5-5-5-5-5-5-5---7-7-7-7-7-7-7-0----|
5:-5-5-5-5-5-5-5-0-3-3-3-3-3-3-3-0-5-5-5-5-5-5-5-0-5-5-5-5-5-5-5-0----|
6:---------------------------------3-3-3-3-3-3-3-0--------------------|
  PM------------------------------------------------------------------|

Ending (x3; then begin to fade away)
1:----------------------------------|
2:----------------------------------|
3:-7-------5------------------------|
4:-7-------5-------5-------7--------|
5:-5-------3-------5-------5--------|
6:-----------------3-------5--------|


| PM Palm mute
===============
Tap to rate this tab
 
# A B C D E F G H I J K L M N O P Q R S T U V W X Y Z