Song name
# A B C D E F G H I J K L M N O P Q R S T U V W X Y Z

Gene Clark - Almost Saturday Night tab

Help us improve GuitareTab! Take a short survey!
This is my first tab so do it some justice.


E-----------------------------------------------------------|
B------6---5---5---6---8-----------5---5-------5---5--------|
G--------------------------5---7-----------7----------------|
D-----------------------------------------------------------|
A-----------------------------------------------------------|
E-----------------------------------------------------------|


E-----------------------------------------------------------|
B---6---5---5---6---8-------6---5---------------------------|
G-----------------------5-----------7---5-------5-----------|
D-------------------------------------------7---------------|
A-----------------------------------------------------------|
E-----------------------------------------------------------|


E-----------------------------------------------------------|
B---6---5---5---6---8-----------5---5-------5---5-------5---|
G-----------------------5---7-----------7-------------------|
D-----------------------------------------------------------|
A-----------------------------------------------------------|
E-----------------------------------------------------------|

E-----------------------------------------------------------|
B-----------------------------------------------------------|
G---5--5--4--4--2--2--0-------------------------------------|
D------------------------2--3--2--0--2--3--2--0--2----------|
A---------------------------------------------------3-------|
E-----------------------------------------------------------|
Related for Almost Saturday Night tab