Song name
# A B C D E F G H I J K L M N O P Q R S T U V W X Y Z

Generacion 12 - Alaba tab

INTRO

E------------------------------------------------------------------|
B--12-12-12-------12-12-12-----------------------------------------|
G-----------9-9-9----------9-9-------------------------------------|
D------------------------------10-10-10-9-9-9-7-7-7-5-5-5-4-4-4-5--|
A------------------------------------------------------------------|
E------------------------------------------------------------------|

EN EL PARON. 4 veces

E----------12----------------------------|
B--10s9-9--------------------------------|
G----------------------------------------|


  E                                     A
Dios no rechaza oración, oraciones alimento
  F#                     B                      E
Nunca vi un justo sin respuesta o quedar en sufrimiento
  E                                       A
Basta solamente esperar lo que Dios ira hacer
   F#                     B                E
Cuando le levantas tus manos es hora de vencer

      E
Oh alaba simplemente alaba
                 A
Estas llorando alaba en la prueba alaba
                     B
Si estas sufriendo alaba no importa alaba
                  E
Tu alabanza el escuchara
    E                                         A
La gente necesita entender lo que Dios esta hablando
    F#                    B                          E
Cuando el se queda en silencio es por que esta trabajando
   E                                      A
Basta solamente esperar lo que Dios ira hacer
   F#                    B                E
Cuando el extiende sus manos es hora de vencer

  E
Dios va al frente abriendo camino (tu camino)
   C#m
Quebrando cadenas sacando espinos
  A
Manda sus Ángeles contigo a luchar (lucha por ti)
  B
Y el abre puertas nadie puede cerrar (nunca jamás)
  E
Dios trabaja para los que confían
  C#m
Camina contigo de noche y de día (nunca te dejara)
   A
Levanta tus manos tu victoria llego
     B
Comienza a cantar y…
Tap to rate this tab
# A B C D E F G H I J K L M N O P Q R S T U V W X Y Z