Song name
# A B C D E F G H I J K L M N O P Q R S T U V W X Y Z

General Fiasco - Buildings tab

-----------------------------------------------------------------
BUILDINGS - General Fiasco 
-----------------------------------------------------------------


This is my very first tab! Originally transcribed by ear. I realised there
is almost no descent tabs for this Awemsome band, i felt they deserved so
much more recognition. Enjoy this beautiful song! Comments are perfectly
welcome too. If you wish to contribute to this tab, feel free to E-mail me
any details. :)

Tabbed by: Gareth Davies
Email: GarethDavies94@hotmail.co.uk

Tuning: Standard (EADGBe)

Bassist and Vocals: Owen Strathern
Lead Guitarist and Rhythm Guitarist: Enda Strathern
Drums: 'Leaky'

  

(00:03) Clean Tone . (Delay/ Slight Reverb)
e|---------------------------------------------------------------|
B|--(11)---------------------------------------------------------|
G|---------------------------------------------------------------|
D|---------------------------------------------------------------|
A|---------------------------------------------------------------|
E|---------------------------------------------------------------|



First off at the intro you hear Enda play this. Clean Tone. (00:07)
e|--------------------------------------------------6------------|
B|--------9-9--9---------9-9--9--------9-9--9----------9---------|
G|-6-6-6---------6-6-6----------6-6-6---------6-6-6------6-------|
D|---------------------------------------------------------------|
A|---------------------------------------------------------------|
E|---------------------------------------------------------------|
Easy enough eh? You can just play this until necessary when the Rhythym begins.

 

Here are the chords for the Rhythym. Be careful when Listening to
the track as the Bass Guitar (Owen) Is Distorted more than the Rhythm. 
This may cause some confusion. 


(00:37)   Very Light Distortion.
e|--x--------x-----------x--------x--------x---------x-----------|
B|--x--------9-----------x-------(13)-----(11)-------x-----------|
G|-(6)-------6----OR----(10)------13-------11-------(10)---------|
D|--8--------6-----------11-------13-------11--------11----------|
A|--8--------x-----------11-------11-------9---------11----------|
E|--6--------x-----------9--------x--------x---------9-----------|
  (A#m)    (C#m)        (C#m)    (G#)     (F#m)     (C#m) ;D



(00:52) Clean Tone.  There is a variation of this fill after the second bar.
e|--------------------------------------------------6------------|
B|--------9-9--9---------9-9--9--------9-9--9----------9---------|
G|-6-6-6---------6-6-6----------6-6-6---------6-6-6------6-------|
D|---------------------------------------------------------------|
A|---------------------------------------------------------------|
E|---------------------------------------------------------------|

e|--------------------------------------------------6------------|
B|--------9-9--9---------9-9--9--------9-9--9----------9---------|
G|-6-6-6---------6-6-6----------6-6-6---------6-6-6------6-------|
D|---------------------------------------------------------------|
A|---------------------------------------------------------------|
E|---------------------------------------------------------------|

This is a very slight variation of the fill above. Do this for one Bar.
e|-----------------------------9------------9---------6----------|
B|--------9-9--11---------9-9-----------9-9-------------9--------|
G|-6-6-6-----------6-6-6----------6-6-6---------6-6-6-----6------|
D|---------------------------------------------------------------|
A|---------------------------------------------------------------|
E|---------------------------------------------------------------|

Carry on normal until ryhtym begins.
e|--------------------------------------------------6------------|
B|--------9-9--9---------9-9--9--------9-9--9----------9---------|
G|-6-6-6---------6-6-6----------6-6-6---------6-6-6------6-------|
D|---------------------------------------------------------------|
A|---------------------------------------------------------------|
E|---------------------------------------------------------------|

  
Rhythm: (01:21)   Very Light Distortion.
e|--x--------x--------x--------x---------------------------------|
B|--x--------9-------(13)-----(11)-------------------------------|
G|-(6)-------6--------13-------11--------------------------------|
D|--8--------6--------13-------11--------------------------------|
A|--8--------x--------9--------x---------------------------------|
E|--6--------x--------x--------x---------------------------------|
  (A#m)    (C#m)     (G#)     (F#m)  
e|--x--------x--------x--------x---------x-----------------------|
B|--x--------9-------(13)-----(11)-------x-----------------------|
G|-(6)-------6--------13-------11-------(10)---------------------|
D|--8--------6--------13-------11--------11----------------------|
A|--8--------x--------9--------9---------11----------------------|
E|--6--------x--------x--------x---------9-----------------------|
  (A#m)    (C#m)     (G#)     (F#m)     (C#m) 
                        
                    
Tap to rate this tab
 
# A B C D E F G H I J K L M N O P Q R S T U V W X Y Z