Song name
# A B C D E F G H I J K L M N O P Q R S T U V W X Y Z

General Fiasco - Ever So Shy tab

-------------------------------------------------------------------------------
			   Ever So Shy(Album Version)- General Fiasco
-------------------------------------------------------------------------------
Tabbed by:Jesse
Email: snowcain@yahoo.com

Tuning:Standard
Intro
e|---------------------------------------------------------------------------|
B|---------------------------------------------------------------------------|
G|----------------777-55555----------------------777-55555-------------------|
D|----55555555-----------------------55555555--------------------------------|
A|---------------------------------------------------------------------------|
E|---------------------------------------------------------------------------|

e|---------------------------------------------------------------------------|
B|---------------------------------------------------------------------------|
G|------------------777-55555-------------------777-88888--------------------| 
D|-----88888888----------------------66666666--------------------------------|
A|---------------------------------------------------------------------------|
E|---------------------------------------------------------------------------|
Chorus
e|---------------------------------------------------------------------------|
B|---------------------------------------------------------------------------|
G|----3-----------------------------8----------------------------------------|x4
D|----3-(x8)-5--5--5--6--6--6--6----8-(x8)-----------------------------------|
A|----1------5--5--5--6--6--6--6----6------888-1010101010--------------------|
E|-----------3--3--3--4--4--4--4---------------------------------------------|

Working on the rest it'll be up soon. :)

************************************

| /   slide up
| \   slide down
| h   hammer-on
| p   pull-off
| ~   vibrato
| +   harmonic
| x   Mute note
| b   Bend
| pb  Pre-bend
| br  Bend release
| pbr Pre-bend release
| brb Bend release bend

************************************
Tap to rate this tab
 
# A B C D E F G H I J K L M N O P Q R S T U V W X Y Z