General Luna - Red Heaven tab

RED HEAVEN by General Luna


*drop D tuning....


INTRO:

e|---------------------------|
B|---------------------------|
G|---------------------------| 4x
D|---------------------------|
A|-5p2-2-2-2-2-2--5p2-2-7-8--|
E|-5p2-2-2-2-2-2--5p2-2-7-8--|


VERSE:

e|--------------------------------------------|
B|--------------------------------------------|
G|--------------------------------------------| 4x
D|-----0h3-0h3-0h3-0h3-0-----0h3-0-----0h3-0--|
A|-(2)-------------------(5)-------(7)--------|
E|-(2)-------------------(5)-------(7)--------|


REFRAIN:

e|-----------------    ------------------------|
B|-----------------    ------------------------|
G|-7-7--9-9--12-9-- 3x -7-7--9-14/12-12-12-12--|
D|-7-7--9-9--12-9--    -7-7--9-14/12-12-12-12--|
A|-5-5--7-7--10-7--    -5-5--7-12/10-10-10-10--|
E|-----------------    ------------------------|


CHORUS:

e|-----------------------------------|
B|-----------------------------------|
G|-----------------------------------|
D|-----------------------------------|
A|-5-5-5-5-5-5-5-5--7-7-7-7-7-7-7-7--|
E|-5-5-5-5-5-5-5-5--7-7-7-7-7-7-7-7--|

e|-------------------------------|
B|-------------------------------|
G|-------------------------------|
D|-9-9-x-x-x-x--12-12--12-14-12--|
A|-7-7-x-x-x-x--10-10--10-12-10--|
E|-------------------------------|

e|-----------------------------------|
B|-----------------------------------|
G|-----------------------------------|
D|-----------------------------------|
A|-5-5-5-5-5-5-5-5--7-7-7-7-7-7-7-7--|
E|-5-5-5-5-5-5-5-5--7-7-7-7-7-7-7-7--|

e|---------------------|
B|---------------------|
G|---------------------| * di ako sure sa parteng ito...
D|------4-5--4-5--7-9--|
A|-5-7--5-7--5-7--5-7--|
E|-0-0--0-0--0-0--0-0--|


VERSE:

e|--------------------------------------------|
B|--------------------------------------------|
G|--------------------------------------------| 4x
D|-----0h3-0h3-0h3-0h3-0-----0h3-0-----0h3-0--|
A|-(2)-------------------(5)-------(7)--------|
E|-(2)-------------------(5)-------(7)--------|


REFRAIN:

e|-----------------    ------------------------|
B|-----------------    ------------------------|
G|-7-7--9-9--12-9-- 3x -7-7--9-14/12-12-12-12--|
D|-7-7--9-9--12-9--    -7-7--9-14/12-12-12-12--|
A|-5-5--7-7--10-7--    -5-5--7-12/10-10-10-10--|
E|-----------------    ------------------------|


CHORUS:

e|-----------------------------------|
B|-----------------------------------|
G|-----------------------------------|
D|-----------------------------------|
A|-5-5-5-5-5-5-5-5--7-7-7-7-7-7-7-7--|
E|-5-5-5-5-5-5-5-5--7-7-7-7-7-7-7-7--|

e|-------------------------------|
B|-------------------------------|
G|-------------------------------|
D|-9-9-x-x-x-x--12-12--12-14-12--|
A|-7-7-x-x-x-x--10-10--10-12-10--|
E|-------------------------------|

e|-----------------------------------|
B|-----------------------------------|
G|-----------------------------------|
D|-----------------------------------|
A|-5-5-5-5-5-5-5-5--7-7-7-7-7-7-7-7--|
E|-5-5-5-5-5-5-5-5--7-7-7-7-7-7-7-7--|

e|-------------------------------------|
B|-------------------------------------|
G|-12-12-12-12-12--12-12-12-12/14--9~--|
D|-x--x--x--x--x---x--x--x--x--x---9~--|
A|-10-10-10-10-10--10-10-10-10/12--7~--|
E|-------------------------------------|


Fill in pagkatapos ng pangalawang chorus:

* 4 counts muna ng Bass tapos...

e|-----------<12>--|
B|------<12>-------|
G|-<12>------------|
D|-----------------|
A|-----------------|
E|-----------------|

*tapos may ganitong parte pagkatapos mag-harmonics..
 di ko lang sure kung paano ginawa, tingnan nalang sa music video.. hehe

e|-----------|
B|-7h8p7h8---|
G|-----------| paulit-ulit......
D|-----------|
A|-----------|
E|-----------|


BRIDGE:

e|------------------|
B|------------------|
G|------------------| PM 8x
D|------------------|
A|-0-2-0-2-0-2-0-2--|
E|-0-2-0-2-0-2-0-2--|

     o kaya eto..

e|------------------|
B|------------------|
G|------------------| PM 8x
D|------------------|
A|-0-2-0-2-0-2-5-2--|
E|-0-2-0-2-0-2-5-2--|


ADLIB:

rhythms..

e|-----------------------------|
B|-----------------------------|
G|----------------2-0----------| 8x
D|--------------------2-0------|
A|-5-2-0-2-5-2--0--------------|
E|-5-2-0-2-5-2--0---------5-2--|


CHORUS:

e|-----------------------------------|
B|-----------------------------------|
G|-----------------------------------|
D|-----------------------------------|
A|-5-5-5-5-5-5-5-5--7-7-7-7-7-7-7-7--|
E|-5-5-5-5-5-5-5-5--7-7-7-7-7-7-7-7--|

e|-------------------------------|
B|-------------------------------|
G|-------------------------------|
D|-9-9-x-x-x-x--12-12--12-14-12--|
A|-7-7-x-x-x-x--10-10--10-12-10--|
E|-------------------------------|

e|-----------------------------------|
B|-----------------------------------|
G|-----------------------------------|
D|-----------------------------------|
A|-5-5-5-5-5-5-5-5--7-7-7-7-7-7-7-7--|
E|-5-5-5-5-5-5-5-5--7-7-7-7-7-7-7-7--|

e|---------------------------------|
B|---------------------------------|
G|-12-12-12-12-12--12-12-12-12/14--| 2x
D|-x--x--x--x--x---x--x--x--x--x---|
A|-10-10-10-10-10--10-10-10-10/12--|
E|---------------------------------|


OUTRO:

e|-----------------------------------------------------|
B|-12-10----10----------10-8---8--------8--------------|
G|-------12----12----12------9---9----9---9-7-9---7-9\-|
D|----------------------------------------------9------|
A|-----------------------------------------------------|
E|-----------------------------------------------------|



Chords!


VERSE:

  Em
 Aligned your eyes
        G              A
 To the shadows of the night
        Em
 In the quiet you will find
 G                A
 all the world is running wild

    Em
 So skim the streets
          G                A
 with the blisters on your feet
        Em
 It's a far and fast escape
         G                   A
 show me where's your safe retreat


REFRAIN:
 D       Em       G      D
 I'll follow with all my soul
                Em       G
 even though my eyes are closed
D                Em       G
 reaching out on one long way
D                 Em    G
 nothing's what it seems


CHORUS:
G
 This is just a dream
    A              Em
 we won't remember
G
 so, if we never wake
      A              Em
 then all the better

 Making drunken

VERSE:

dances of the tears
as the daylights disappears
falling sweetly, getting sleepy
this dream is just a dream

Don't you drift too far
forgetting who you are

REFRAIN:

I'll follow with all my soul
even though my eyes are closed
reaching out on one long way
nothing's what it seems

CHORUS:

This is just a dream
we wont remember
so, if we never wake
then all the better

BRIDGE: Em----

Notice how the light changed
do you recognize
this ain't the same city
that was born before your eyes

Are you falling deeper
hearin', echos of laughter
chasing you down
thinking of going get out, oh

CHORUS:

This is just a dream
we wont remember
so, if we never wake
then all the better


*Legend:

h  -  hammer-on
p  -  pull-off
x  -  dead note/mute
PM -  palm mute



NITRAM
04-21-11
08:32 PM
Tap to rate this tab
 
# A B C D E F G H I J K L M N O P Q R S T U V W X Y Z