Song name
# A B C D E F G H I J K L M N O P Q R S T U V W X Y Z

General Surgery - Grotesque Maceration Of Mortified Flesh tab

Author/Artist: GENERAL SURGERY
Title: GROTESQUE MACERATION OF MORTIFIED FLESH
Album: NECROLOGY
Transcribed by: KERNOUS
Email: KERNOUS@RELAPSECULT.COM

TUNE DOWN 2 & 1/2 STEPS.LISTEN TO ALBUM FOR TIMING.I DONT HAVE A LOCKING
TREMOLO SO I CAN'T TAB THE WHAMMY BAR DIVES OR SOLOS,SORRY.
  fill1  riff1
-|-----|-----------------------------|
-|-----|-----------------------------|
-|-----|-----------------------------|
-|-----|--------------------------3--|
-|11-\-|----3---2---4~----3---2---3--|
-|-9-\-|-0----3---2----0----3---2-1--|
     sl
  riff2             fill2
-|----------------|-------------------|
-|----------------|-------------------|
-|----------------|-------------------|
-|-2--7-6-5-6-5-4-|-2-----------------|
-|-2--7-6-5-6-5-4-|-2-----------------|
-|-0--5-4-3-4-3-2-|-0-----------------|

  riff3             riff4
-|----------------|-----------------|
-|----------------|-----------------|
-|----------------|-----------------|
-|----------------|-----------------|
-|----------------|---------6---5---|
-|0000111144443333|-0---3-----------|

  riff5              fill3
-|------------------|---|
-|------------------|---|
-|------------------|---|
-|------------------|-2-|
-|---------66665555-|-2-|
-|-00003333---------|-0-|

fill1
riff1 x 4
riff2 x 4
riff1 x 2
fill2
riff3 x 8
riff4 x 1
riff3 x 4
riff4 x 2
riff5 x 8
riff1 x 4
riff2 x 4
fill2
riff3 x 6
riff4 x 2
fill3
Tap to rate this tab
# A B C D E F G H I J K L M N O P Q R S T U V W X Y Z