Song name
# A B C D E F G H I J K L M N O P Q R S T U V W X Y Z

Generation X - Fridays Angels tab

FRIDAYS ANGELS INTRO by GENERATION X


E------x----x----x----x----3----3----x----x-------------|
B------3----3----2----2----3----3----2----2-------------|
G------2----2----2----2----2----2----2----2-------------|
D------0----0----0----0----0----0----0----0-------------|
A-------------------------------------------------------|
E-------------------------------------------------------| repeat a few times

THEN START OF VERSE

E----------------------2----2----2----2---2-----------------------|
B----------------------3----3----3----3---3-----------------------|
G----------------------2----2----2----2---2-----------------------|
D----------------------0----0----0----0---0-----------------------|
A------0----2----4------------------------------------------------|
E-----------------------------------------------------------------|
                                                   repeat till chord change

Not sure what the other two chords are at the end of the verse.

Think the chords in Chorus are A and F#   but unsure.  Open to corrections and comments on this one.
Tap to rate this tab
# A B C D E F G H I J K L M N O P Q R S T U V W X Y Z