Song name
# A B C D E F G H I J K L M N O P Q R S T U V W X Y Z

Generationals - These Habits chords

Highlighted       Show chord diagrams
Artist: Generationals
Song: These Habits
Album: Con Law
2010

Another Generationals tab i figured out for all you fans!
Fairly easy but fun to play and sing along with friends.
Enjoy!
If there's any mistakes email me at tsos.josue@gmail.com


Intro

 C
|--------------------------------------|
|--------------------------------------|
|--------------------------------------|
|-----------2--2-2-2-3--5--------------|
|-2--3-3--5---------------2--3---------|
|--------------------------------------|

F
You see somebody standing next to you,
                                          C
you come and go like fashion comes across
F
And when the solitude gets to you,
                                            C
get yourself to Pensacola and wash yourself off

Dm        C                            G
There is nothing worse than waiting around
F                 C                        G
You can tell from looking at me that these habits are so far down

 C
|--------------------------------------|
|--------------------------------------|
|--------------------------------------|
|-----------2--2-2-2-3--5--------------|
|-2--3-3--5---------------2--3---------|
|--------------------------------------|

F
I saw the two of us playing cards in the dark,
                                C
I said 'I guess I must be here'
F
And when I offer an apology back,
                        C
my sister says I'm insincere

Dm        C                            G
There is nothing worse than waiting around
F                 C                        G
You can tell from looking at me that these habits are so far down
Dm        C                            G
There is nothing worse than waiting around
F                C                        G
You can see from looking at me that these habits are so far down

Ending
 F   C   G

|--------------------------------------|
|--------------------------------------|
|--------------------------------------|
|-----------2--2-2-2-3--5--------------|
|-2--3-3--5---------------2--3---------|
|--------------------------------------|
Tap to rate this tab
 
# A B C D E F G H I J K L M N O P Q R S T U V W X Y Z