Song name
# A B C D E F G H I J K L M N O P Q R S T U V W X Y Z

Generationals - When They Fight They Fight chords

Highlighted       Show chord diagrams
The Generationals
Con Law
2009

"When they fight, they fight"

e|------------------------------------------------------------------------------|
B|------------------------------------------------------------------------------|
G|------------------------------------------------------------------------------|
D|------------------------------------------------------------------------------|
A|--5--5--2--------2--5--5--2--0--0--2--5--5--2------2--5--5--2--0--0------0-2--|
E|-----------0--0-------------------------------0--0---------------------0------|

e|-----------------------------------------------------------------------------|
B|-----------------------------------------------------------------------------|
G|-----------------------------------------------------------------------------|
D|-----------------------------------------------------------------------------|
A|--5--5--2-0-2--------0-2--5--5--2-0-2--0--0---0-2--5-5-2-0-2------0-2-5-5----|
E|--------------0--0-0------------------------0----------------0-0-0-----------|

e|---------------------------------------------------------------------------|
B|---------------------------------------------------------------------------|
G|---------------------------------------------------------------------------|
D|---------------------------------------------------------------------------|
A|---2-0-2-0--0---0-2-5-5-2-0-2---(and so on...)-----------------------------|
E|--------------0------------------------------------------------------------|


D             Em
When they fight, they fight
D             A
And when they come home at night they say,
D    Em    D    A
"i love you, baby."

D        Em
Was it too much too soon,
D           A
Or too little too late?
D                       Em                      D    A
He got the message she left on his car, in the rain.

(Bridge) (Drop-C!!)
e|-----------------------------------------------------|
B|-----------------------------------------------------|
G|-----------------------------------------------------|
D|-----------------------------------------------------|
A|---0-2----2---------------------------0-0------------|
C|-7-----7----7--6--2-4--0-0--0-0--7-7-----------------|

G                       Fm
And then the words they come to you,
Bm          Bm
driving away.
G              A
You just can't let it go.

D                    Em
And when they fight, they fight,
D                          A
And when they come home at night they say,
D        Em      D   A
"i love you, baby."


G                     Fm
And when it all comes crashing down,
Bm
what can you do,
G                     A
to find what you're looking for?
G                       Fm
And then the words will come to you,
Bm
driving through the rain. 
G                                Fm
But ther will be no one there to say them to
A
Anyway


D                    Em
And when they fight, they fight,
D                          A
And when they come home at night they say,
D        Em      D   A
"i love you, baby."

D                    Em
And when they fight, they fight,
D                          A
And when they come home at night they say,
D        Em      D   A
"i love you, baby."



(I used snowfun09's intro tab - corrected it a bit)
Tap to rate this tab
 
# A B C D E F G H I J K L M N O P Q R S T U V W X Y Z