Song name
# A B C D E F G H I J K L M N O P Q R S T U V W X Y Z

Generationals - Angry Charlie chords

Highlighted       Show chord diagrams
The Generationals
Con Law
2009


"Angry Charlie"


Cm              D#
I heard you laughing,
Fm                           G#
I knew you thought you could hide.
Cm            
It was a sound,
D#
ringing out,
Fm                   G#
from the back of the line.
Cm                    D#
Your heart's not broken
Fm                      G#
but your feelings they show,
Cm                       D#                         Fm    G#
there's a mark, left behind, when you walk in the snow.


Bb
Your little Tina,
Fm          D#
is she still alive?
Bb                                   Fm
Now that you've seen her, are you still surprised?

D#   Fm  G# x2

   D#                                    Fm                 G#         
E:-----------------------------------------------------------------------------|
B:-11-11-11--8-8-8-8--6-6-6-6--8-8-8-8---11-11-11--8-8-8-8--6-6-6-6--4-4-4-4---|
G:-----------------------------------------------------------------------------|
D:-----------------------------------------------------------------------------|
A:-----------------------------------------------------------------------------|
E:-----------------------------------------------------------------------------|

   D#                                     Fm                    G#
E:---------------------------------------s11-11-11-11-11-10-10--7-7-7-7-8-8-8-8-|
B:-11-11-11--8-8-8-8--6-6-6-6--8-8-8-8------------------------------------------|
G:------------------------------------------------------------------------------|
D:------------------------------------------------------------------------------|
A:------------------------------------------------------------------------------|
E:------------------------------------------------------------------------------|

Cm             D# 
Now if me made it,
Fm                        G#
they caught me cheating again.
Cm                   D#                        Fm      G#
It's the one, in the red, that you keep on the shelf.
Cm           D#
It's overrated,
Fm                          G#
We'll pretend we're just friends.
Cm                        D#                       Fm  G#
If you won't, sing it with me, then I'll sing by myself.


Bb
Your little Tina,
Fm                 D#
is she still alive?
Bb                                Fm            
Now that you've seen her, are you still surprised?

D#  Fm  G# x2

Bb        
Good luck with teacher.
D#                         (G#)
Now you know what they're like.
Bb
In love with Tina, you know
D#                       (G#)
well, now that you know her.
Bb
Long time no-see her,
D#              (G#)
in a parallel life.
Bb
Long time, no-see. 

D#  Fm  G# x2

   D#                                    Fm                 G#         
E:-----------------------------------------------------------------------------|
B:-11-11-11--8-8-8-8--6-6-6-6--8-8-8-8---11-11-11--8-8-8-8--6-6-6-6--4-4-4-4---|
G:-----------------------------------------------------------------------------|
D:-----------------------------------------------------------------------------| x4
A:-----------------------------------------------------------------------------|
E:-----------------------------------------------------------------------------|
Tap to rate this tab
 
# A B C D E F G H I J K L M N O P Q R S T U V W X Y Z