Song name
# A B C D E F G H I J K L M N O P Q R S T U V W X Y Z

Generationals - Please Be It tab

The Generationals
Actor Caster
2011
"Please be it"

    E        B            F#m             A 
E:-------------------------------------------------------|
B:-------------------------------------------------------|
G:----------4--------------------------------------------|
D:--6-6-4-6---(4)-4-6-4------4-4-6-4---------------------|  x2
A:---------------------7-4----------7-4-7-7--44-4-7-4----|
E:----------------------------------------------------7--|


E                   B 
I saw you waiting around
F#m                         A
Is that the worst you could do?
E             B                 F#m  A
Then why am I waiting round for you?

E                         B  
This isn't what you would think
F#m                       A
If they don't get to you first
E                     B                   F#m  A
It's not so bad as it seems, it's so much worse

B                     C#              D    A
That's not what they say when you're around
B                         C#                  D    A
You got it right when you said they're so far down


   E           B   F#m         A  E         B        F#m A
E:-----------------------------------------------------------------|
B:-----------------------------------------------------------------|
G:-4-4---4---------------------------------------------------------|
D:-----6---6---4---4-4-6-4--------6-6-6-4---4--6-4-------(6)-------|
A:-----------7-------------7-4-4----------7--------7-4-------------|
E:-----------------------------------------------------------------|
I heard you calling my name
I won't admit that you're right
Is it something you tell yourself at night?

    E           B   F#m         A  E         B        F#m  A
E:----------------------------------------------------------|
B:----------------------------------------------------------|
G:----------------------------------------------------------|
D:--6-6-6-6-4---4---4-4-6-6-4------6-6-6-4---4--6-4---------|
A:------------7---------------7-4----------7--------7-4-----|
E:----------------------------------------------------------|
I feel like it's getting old
And they'll be passing us by
What's the worst we could do but start to try?


That's not what they say when you're around
You got it right when you said they're so far down


That's not what they say when you're around
You got it right when you said they're so far down

E:------------------------------------------------------------|
B:------------------------------------------------------------|
G:------------------------------------------------------------|
D:--6-6-6-6-4---4-4--4-4-6-6-4-4----6-6-6-6-4---4-6-4---------|
A:------------7------------------4------------7-------7-4-----|
E:------------------------------------------------------------|


--------------------------------------------------------------
ending

   E                              B  F#m  A
E:-16-16-14-16-19-21-19-16-14----(12)----------------------------|
B:----------------------------14------------9999-7777-5555-------|
G:---------------------------------------------------------6666--|
D:---------------------------------------------------------------|
A:---------------------------------------------------------------|
E:---------------------------------------------------------------|
Tap to rate this tab
# A B C D E F G H I J K L M N O P Q R S T U V W X Y Z