Song name
# A B C D E F G H I J K L M N O P Q R S T U V W X Y Z

Genesis - Dancing With The Moonlit Knight tab

DANCING WITH THE MOONLIT KNIGHT - GENESIS - 1st solo

E-------------------|
B-------------------|
G-------------------|
D-------------------|   X4
A----4---5---4---2--|
E--2---2---2---2----|


    T T T T T T T T T T T T T T T T T T T T T
E--9-5-3-5-9-9-5-3-5-9-9-5-3-5-9-9-5-3-5-9-9-5-|
B----------------------------------------------|
G----------------------------------------------|  X2
D----------------------------------------------|
A----------------------------------------------|
E----------------------------------------------|


  T     T T T T T T T T T T T T T T T T T T T T
E--------------------------------------------------|
B--------------------------------------------------|
G--9---3-5-9-5-3-5-9-5-9-3-8-3-7-3-6-3-8-3-7-3-5---|
D--------------------------------------------------|
A--------------------------------------------------|
E--------------------------------------------------|


E-----------------------------------------------------|
B-----------12---13p12--------------12--13---12-------|
G----12---0------------12--------12-------------12----|
D--0----------------------12---0-------------------12-|
A-----------------------------------------------------|
E-----------------------------------------------------|

E-----------------------------------------|
B--------2--3--2-------------2b3----------|
G--2--4-----------2-0---2--4-----2-0------|
D-----------------------------------------|
A-----------------------------------------|
E-----------------------------------------|

E--------------|
B-8--7--10--5--|   4 times, slower the first 2, and faster de 2 left
G--------------|
D--------------|
A--------------|
E--------------|

E--12--10--12--10--12--10--12--10--12----------------------------------------|
B-------------------------------------G--------------------------------------|
D----------------------------------------------------------------------------|
A----------------------------------------------------------------------------|
E----------------------------------------------------------------------------|

E----------------------------------------------|
B--15--17--17b19r17------15--17--17b19r17------|
G--------------------14--------------------14--|
D----------------------------------------------|
A----------------------------------------------|
E----------------------------------------------|

E--------------------17----|
B--14b15r14----------------|
G-----------16--14---------|
D--------------------------|
A--------------------------|
E--------------------------|

E----------------------------------------------|
B--15--17--17b19r17------15--17--17b19r17------|
G--------------------14--------------------14--|
D----------------------------------------------|
A----------------------------------------------|
E----------------------------------------------|

E--------------------------|
B--14b15r14----------------|
G-----------16--14---12----|
D--------------------------|
A--------------------------|
E--------------------------|

    T T T T T T T T T T T T T T T T T T T T T
E--9-5-3-5-9-9-5-3-5-9-9-5-3-5-9-9-5-3-5-9-9-5-|
B----------------------------------------------|
G----------------------------------------------|  X2
D----------------------------------------------|
A----------------------------------------------|
E----------------------------------------------|

E-----------------|
B-x--x--x--12b14--|
G-----------------|
D-----------------|
A-----------------|
E-----------------|


E---------------------------------------|
B---------------------------------------|
G---------------------------------------|
D---------------------------------------|
A----4---5---4---2---4---5---0--2--3--5-|
E--2---2---2---2---2---2----------------|

segue to "there-s a fat old lady outside the saloon..."

i suggest that at least you can recognize each part from the solo before trying to play
a I didnt put many details in it....

Ive tabbed a little more, but Id rather wait until I come up with the whole solo 2, to
it, hope you enjoy this first solo from this amazing song, and of course you can send me
suggestion to my mail carrositosis@yahoo.com.ar and of course if someone has any idea of 
the second solo goes, it would be of great help, greetings from argentina

nico
Tap to rate this tab
# A B C D E F G H I J K L M N O P Q R S T U V W X Y Z