Song name
# A B C D E F G H I J K L M N O P Q R S T U V W X Y Z

Genesis - Second Home By The Sea tab

This is the guitar solo I figured out for Genesis's song Second Home By the Sea. You can 
me play the solo here:

http://www.youtube.com/watch?v=qol0h3FJH-g

This is the first time I have done a tab online. I know you can bend some of these notes 
added flair :)

If you have a chance add my myspace page:

http://www.myspace.com/trycatchscenario

or my youtube

http://www.youtube.com/user/trycatchscenario

or both :)


Thank You

Stephen M

Solo
------

|-------------------------------------------------|
|-------------------------------------------------|
|----------------------------------9-11--11--14-12|
|-------------------------------------------------|
|-7----7---10--7--9-9-9--12-----------------------|
|---10-----------------------10-------------------|


|-----------------------12--14--15--14--12--------|
|--------------------12---------------------12----|
|-12-14-12-11-9--9--------------------------------|
|-------------------------------------------------|
|-------------------------------------------------|
|-------------------------------------------------|

|--------------------------19-19-19-22-15---------|
|--12-12-10----10--12-----------------------------|
|-------------12----------------------------------|
|-------------------------------------------------|
|-------------------------------------------------|
|-------------------------------------------------|

|------------------------|------------------------|
|------------------------|------------------------|
|---12--11--11--12--11-9-|------------------------|
|------------------------|------------------------|
|------------------------|------------------------|
|------------------------|------------------------|
Tap to rate this tab
# A B C D E F G H I J K L M N O P Q R S T U V W X Y Z