Song name
# A B C D E F G H I J K L M N O P Q R S T U V W X Y Z

Genesis - Misunderstanding tab

-------------------------------------------------------------------------------
			     Misunderstanding - Genesis
-------------------------------------------------------------------------------
Tabbed by: J-Bone
Email:mclaughlinj1@verizon.net

Tuning:Standard

e|--------------------------------------------------------------------------------|
B|--------------------------------------------------------------------------------|
G|--------------------------------------------------------------------------------|
D|-----------------------------------7--------5-----------------------------------|
A|--------5-------7--------8------------------------------------------------------|
E|--------------------------------------------------------------------------------|

e|--------------------------------------------------------------------------------|
B|--------------------------------------------------------------------------------|
G|--------------------------------------------------------------------------------|
D|------------------------------------7--------5----------------------------------|
A|--------5--------7--------8-----------------------------------------------------|
E|--------------------------------------------------------------------------------|

e|---------------------------------------------------------------------------------|
B|---------------------------------------------------------------------------------|
G|---------------------------------------------------------------------------------|
D|------------------------------------7---------5----------------------------------|
A|---------5--------7--------8----------------------------------------3------------|
E|---------------------------------------------------------------------------------|

e|-------------------------------------------------------------------------------|
B|-------------------------------------------------------------------------------|
G|---------------------0---------------------------------------------------------|
D|---------------2------------2--------------------------------------------------|
A|---------3---------------------------------------------------------------------|
E|-------------------------------------------------------------------------------|
                                   Or                3x
e|--------------------------------------------------------------------------------|
B|--------------------------------------------------------------------------------|
G|------------------------------------2-------0-----------------------------------|
D|---------0--------2--------3----------------------------------------------------|
A|----------------------------------------------------------------3---------------|
E|--------------------------------------------------------------------------------|

e|-------------------------------------------------------------------------------|
B|-------------------------------------------------------------------------------|
G|----------------------0--------------------------------------------------------|
D|----------------2------------2-------------------------------------------------|
A|---------3---------------------------------------------------------------------|
E|-------------------------------------------------------------------------------|



************************************

| /   slide up
| \   slide down
| h   hammer-on
| p   pull-off
| ~   vibrato
| +   harmonic
| x   Mute note
| b   Bend
| pb  Pre-bend
| br  Bend release
| pbr Pre-bend release
| brb Bend release bend

************************************
Tap to rate this tab
 
# A B C D E F G H I J K L M N O P Q R S T U V W X Y Z