Song name
# A B C D E F G H I J K L M N O P Q R S T U V W X Y Z

Genesis - Turn It On Again tab

Genesis
Turn It On Again
Duke (1980)
Tabbed by: Frankzy from Italy 

E|-----------------| Stop this when
B|-----------------| the singer says
G|-----------------| "one! two! three! four!"
D|-4-4-4-4-4-4-4-4-|
A|-2-2-2-2-2-2-2-2-|
E|-----------------|
 PM----------------

E|-----------------| First two chords
B|-6-------7-------| 
G|-6-------7-------|
D|-6-------7-------|
A|-----------------|
E|-----------------|

E|--------------------------------------------| Verse x4
B|-0--2--0--4--4--2----3--5--3--7--7--5--3----|
G|-1--2--1--4--4--3----4--6--4--7--7--6--4----|
D|-2--2--2--4--4--4----5--7--5--7--7--7--5----|
A|--------------------------------------------|
E|--------------------------------------------|

E|-------------------------------------------------------| After-Verse x2
B|-7---7--7--5--7---7--7--5---10---10--10--12\3--1--3--5-|
G|-7---7--7--5--7---7--7--5---10---10--10--12\3--2--4--5-|
D|-7---7--7--5--7---7--7--5---10---10--10--12\3--3--5--5-|
A|-------------------------------------------------------|
E|-------------------------------------------------------|

E|-----------------------------------------------------------------------| Interlude
B|-7---7--7--5---7---7--7--5--------------------7---7--7--5--7----------7|
G|-8---8--8--6---8---8--8--6--------------------8---8--8--6--8------8-8--|
D|-9---9--9--7---9---9--9--7---7-7-6-6-4-4------9---9--9--7--9--9-9------|
A|-----------------------------------------7-6---------------------------|
E|-----------------------------------------------------------------------|

E|-----------------------------------------------------------| Chorus----------------------->
B|-8--7h8-7---8--7h8-7---8--7h8-7---7---7--7--5--7---7--7--5-|
G|-7--7-7-7---7--7-7-7---7--7-7-7---7---7--7--5--7---7--7--5-|
D|-9--7h9-7---9--7h9-7---9--7h9-7---7---7--7--5--7---7--7--5-|
A|-----------------------------------------------------------|
E|----------0----------0----------0--------------------------|


E|----------------------------------------------| ------------>Chorus
B|-8--7h8-7---8--7h8-7---8--7h8-7--8-8\10-10-10-|
G|-7--7-7-7---7--7-7-7---7--7-7-7--7-7\-9--9-9--|
D|-9--7h9-7---9--7h9-7---9--7h9-7--9-9\11-11-11-|
A|----------------------------------------------|
E|----------0----------0----------0-------------|

E|---------------------2-2-2| Chorus End               E|-7-5-7-5\10--5-7-5-7--------|
B|---------------------5-5-5| When you play this,      B|---------------------7--\10-|
G|---------------------2-2-2| the keyboard do this --> G|----------------------------|
D|-4-------------------2-2-2| (Arranged for guitar)    D|----------------------------|
A|-2---------------4---4-4-4|                          A|----------------------------|
E|-----------------2---2-2-2|                          E|----------------------------|

Here, the song restart and follows this scheme:
-Verse (x4)
-After-Verse (x2)
-Interlude
-Chorus
-Chorus End
Then, you play the verse fading
Tap to rate this tab
 
# A B C D E F G H I J K L M N O P Q R S T U V W X Y Z