Song name
# A B C D E F G H I J K L M N O P Q R S T U V W X Y Z

Genesis - In The Wilderness chords

Highlighted       Show chord diagrams
Intro on piano and barely hearable 12-string arpeggio 
F C Dm A 
|----1-------0---------------0------| 
|------1-------1-----3---------3-2--| 
|*-------2-------0-----2---------2-*| 
|*-3-----3-2-----2-0-----0---------*| 
|--------------------------0--------| 
|-----------------------------------| 

F C Dm 
Leaving all the world to play 
A 
They disappear 
F C Dm A 
And the leaves have gathered dust to run like deer 
F C Dm A 
Tearing pieces from our lives to feed the dawn 
F C 
Mist surrounds the seagulls 
Dm Em Am 
Christened by the storm 

D G 
Music, all I hear is music .... guaranteed to please 
Em A 
And I look for something else 
D 
Rain drops pouring down the rooftops 
G 
Flowing in the drains 
Em A 
As the people run their lives 
Em A D C 
And their lives are run by time 

F C Dm A 
Fighting enemies with weapons made to kill 
F C Dm A 
Death is easy as a substitute for pride 
F C Dm A 
Victors join together, happy in their bed 
F C Dm Em Am 
Leaving cold outside the children of the dead 

D G 
Music, all I hear is music .... guaranteed to please 
Em A 
And I look for something else 
D 
Rain drops pouring down the rooftops 
G 
Flowing in the drains 
Em A 
As the people run their lives 
Em A D C 
And their lives are run by time 

__________ ____________ 
F C Dm |1. A | 2. Em Am 
|----1-------0---------------0------|----0-----3---0----| 
|------1-------1-----3---------3-2--|------3---------3--| 
|*-------2-------0-----2---------2-*|-------------------| 
|*-3-----3-2-----2-0-----0---------*|--2-----2---2------| 
|--------------------------0--------|-------------------| 
|-----------------------------------|-------------------| 

D G 
Music, all I hear is music .... guaranteed to please 
Em A 
And I look for something else 
D 
Rain drops pouring down the rooftops 
G 
Flowing in the drains 
Em A 
As the people run their lives 
Em A 
And their lives are run by time 

repeat chorus & fade out 
Tap to rate this tab
 
# A B C D E F G H I J K L M N O P Q R S T U V W X Y Z