Song name
# A B C D E F G H I J K L M N O P Q R S T U V W X Y Z

Genesis - Thats Me chords

Highlighted       Show chord diagrams
THIS IS DIFFERENT FROM THE OTHER VERSION ON UG BECAUSE IT HAS TABLATURE AND CHORDS AND ADDED CHORDS 
THEREFORE IT IS NOT A DUPLICATE THE LYRICS ARE FULLY WRITTEN AND IN DIFFERENT SEQUENCE
TO PLAY EASILY IT HAS THE ADDED DSUS4  I think this should be a version 2 

Bm                     D 
Every morning when the people are out 
A                       G 
And I'm free move around on my own 
Bm                           D 
I look into the sun and I see a reflection 
A                  G 
Of a sad and lonely shrivelled man 
Bm          D 
That's me, that's me 
A               G 
And I know it's how I'm always gonna be 
Bm             D 
Nothing to do, nothing to say 
A                G 
Nothing to hope, and nothing to pray 

Em 
I can't see, I can't feel 
I've forgotten what I'm meant to be 
Won't come back, not if I try 
C 
They told me things about me that I didn't know 
But I could tell they've told me lies 
And it really goes to show 
Am 
That everyone was wrong 
And they don't understand my ways 
G 
But it's not me that's going wrong, it's them 

Solo electric guitar, with acoustic strumming chords: 
Bm D A G Bm 
|----------------------------------------------------------------------------| 
|--10(12)--------------------------------------------------------10(12)------| 
|---------------------7--------9(11)-9-7-9-7-9(11)-9-7h9-7---7----------7----| 
|-------------0---------9~/--------------------------------9---9----------9--| 
|---------------7-7(9)-------------------------------------------------------| 
|-----------7----------------------------------------------------------------| 

D V A G 
|-------7----------------7--7-10(12)-10--7--7--------------------------------| 
|------7-10p7-----7-----7-10--------------10-10-7----------------------------| 
|-9(11)------9(11)-9(11)-------------------------9-7-9(10,5)-9-7-9-7---------| 
|--------------------------------------------------------------------9--7-7-9| 
|-------fast-----------------------------------------------------------9-----| 
|----------------------------------------------------------------------------| 

Em 
I can't see, I can't feel  
I've forgotten what I'm meant to be     

G--2-2(4)-2p0---| 
D------------2--| 
Won't come back, not if I try 


C 
They told me things about me that I didn't know 
But I could tell they've told me lies 
And it really goes to show 
Am 
That everyone was wrong 
And they don't understand my ways 
G G G G G G G G 
But it's not me that's going wrong, it's them 

Acoustic guitar only: 
Bm D 
Every morning when the people are out 
A G 
And I'm free move around my own 
Bm D 
I look into the sun and I see a reflection 
A G 
Of a sad and lonely shrivelled man 
Bm D 
That's me, that's me 
A G 
And I know it's how I'm always gonna be 

Bm D 
That's me, that's me 
A G 
And I know it's how I'm always gonna be 

Bm 
Shrivelled old man 
D Dsus4 D 
Who hides from a world 
A 
He's never seen the light 
G 
That can set him free 
Bm 
His vicious life 
D 
Is such a shame 
A G 
I wanna find out who's to blame 
Let ring: Bm D A 
And that's me, oh that's me, aaoh, that's me 
G Bm 
Set me free 
Tap to rate this tab
# A B C D E F G H I J K L M N O P Q R S T U V W X Y Z