Song name
# A B C D E F G H I J K L M N O P Q R S T U V W X Y Z

Genesis - I Cant Dance tab

Genesis - i can't dance

Intro:
   ˇ ˆ 
   4 & 
e -----|
B -----|
G -----|
D -8---|
A -6-6-|
E -6-6-|

   ˇ   ˇ         ˇ     ˆ ˇ       ˇ ˆ   ˇ   ˇ         ˇ     ˇ   ˇ   ˆ ˇ ˆ   2x
   1 & 2 & 3 & 4 &   1 & 2 & 3 & 4 &   1 & 2 & 3 & 4 &   1 & 2 & 3 & 4 &
e|-----------------|-----------------|-----------------|-----------------|
B|-----------------|-----------------|-----------------|-----------------|
G|-----------------|-----------------|-----------------|-----------------|
D|-8---8x--------8-|-----8x------8---|-8---8x--------6-|-------------8---|
A|-8---8x--------8-|---6-8x------6-6-|-8---8x--------6-|---4---6---6-6-6-|
E|-6---6x--------6-|---6-6x------6-6-|-6---6x--------4-|---4---6---6-6-6-|


Verse 1:
       Hot sun ...
   ˇ   ˇ         ˇ     ˆ ˇ       ˇ ˆ   ˇ   ˇ         ˇ     ˇ   ˇ   ˆ ˇ ˆ   3x
   1 & 2 & 3 & 4 &   1 & 2 & 3 & 4 &   1 & 2 & 3 & 4 &   1 & 2 & 3 & 4 &
e|-----------------|-----------------|-----------------|-----------------|
B|-----------------|-----------------|-----------------|-----------------|
G|-----------------|-----------------|-----------------|-----------------|
D|-8---8x--------8-|-----8x------8---|-8---8x--------6-|-------------8---|
A|-8---8x--------8-|---6-8x------6-6-|-8---8x--------6-|---4---6---6-6-6-|
E|-6---6x--------6-|---6-6x------6-6-|-6---6x--------4-|---4---6---6-6-6-|

 I can't ...
   ˇ   ˇ         ˇ     ˆ ˇ       ˇ ˆ   ˇ   ˇ     ˇ   ˇ     ˇ   ˇ     ˇˆˇ   
   1 & 2 & 3 & 4 &   1 & 2 & 3 & 4 &   1 & 2 & 3 & 4 &   1 & 2 & 3 & 4 &
e|-----------------|-----------------|-----------------|-----------------|
B|-----------------|-----------------|-----------------|-----------------|
G|-----------------|-----------------|-----------------|-----------------|
D|-8---8x--------8-|-----8x------8---|-8---8x----------|---------------8-|
A|-8---8x--------8-|---6-8x------6-6-|-8---8x----5---5-|---6---5-----558-|
E|-6---6x--------6-|---6-6x------6-6-|-6---6x----3---3-|---4---3-----336-|

                                 ˇ ˆ    
   1 & 2 & 3 & 4 &   1 & 2 & 3 & 4 &   
e|-----------------|-----------------|
B|-----------------|-----------------|
G|-----------------|-----------------|
D|-----------------|-------------8---|
A|-----------------|-------------6-6-|
E|-----------------|-------------6-6-|


Verse 2:
       Blue jeans ...
   ˇ   ˇ         ˇ     ˆ ˇ       ˇ ˆ   ˇ   ˇ         ˇ     ˇ   ˇ   ˆ ˇ ˆ   3x
   1 & 2 & 3 & 4 &   1 & 2 & 3 & 4 &   1 & 2 & 3 & 4 &   1 & 2 & 3 & 4 &
e|-----------------|-----------------|-----------------|-----------------|
B|-----------------|-----------------|-----------------|-----------------|
G|-----------------|-----------------|-----------------|-----------------|
D|-8---8x--------8-|-----8x------8---|-8---8x--------6-|-------------8---|
A|-8---8x--------8-|---6-8x------6-6-|-8---8x--------6-|---4---6---6-6-6-|
E|-6---6x--------6-|---6-6x------6-6-|-6---6x--------4-|---4---6---6-6-6-|

 I can't ...
   ˇ   ˇ         ˇ     ˆ ˇ       ˇ ˆ   ˇ   ˇ     ˇ   ˇ     ˇ   ˇ   ˇ   
   1 & 2 & 3 & 4 &   1 & 2 & 3 & 4 &   1 & 2 & 3 & 4 &   1 & 2 & 3 & 4 &
e|-----------------|-----------------|-----------------|-----------------|
B|-----------------|-----------------|-----------------|-----------------|
G|-----------------|-----------------|-----------------|-----------------|
D|-8---8x--------8-|-----8x------8---|-8---8x----------|-----------------|
A|-8---8x--------8-|---6-8x------6-6-|-8---8x----5---6-|---5---6---5-----|
E|-6---6x--------6-|---6-6x------6-6-|-6---6x----3---4-|---3---4---3-----|

   ˇ                 ˇ                 ˇ                             ˇ ˆ    
   1 & 2 & 3 & 4 &   1 & 2 & 3 & 4 &   1 & 2 & 3 & 4 &   1 & 2 & 3 & 4 &
e|-----------------|-----------------|-----------------|-----------------|
B|-----------------|-----------------|-----------------|-----------------|
G|-----------------|-----------------|-----------------|-----------------|
D|-4---------------|-3---------------|-----------------|-------------8---|
A|-4---------------|-3---------------|-6---------------|-------------6-6-|
E|-2---------------|-1---------------|-6---------------|-------------6-6-|


Verse 3:
   ...
   ˇ   ˇ         ˇ     ˆ ˇ       ˇ ˆ   ˇ   ˇ         ˇ     ˇ   ˇ   ˆ ˇ ˆ   4x
   1 & 2 & 3 & 4 &   1 & 2 & 3 & 4 &   1 & 2 & 3 & 4 &   1 & 2 & 3 & 4 &
e|-----------------|-----------------|-----------------|-----------------|
B|-----------------|-----------------|-----------------|-----------------|
G|-----------------|-----------------|-----------------|-----------------|
D|-8---8x--------8-|-----8x------8---|-8---8x--------6-|-------------8---|
A|-8---8x--------8-|---6-8x------6-6-|-8---8x--------6-|---4---6---6-6-6-|
E|-6---6x--------6-|---6-6x------6-6-|-6---6x--------4-|---4---6---6-6-6-|

 I can't ...
   ˇ   ˇ         ˇ     ˆ ˇ       ˇ ˆ   ˇ   ˇ     ˇ   ˇ     ˇ   ˇ ˇ ˇ   
   1 & 2 & 3 & 4 &   1 & 2 & 3 & 4 &   1 & 2 & 3 & 4 &   1 & 2 & 3 & 4 &
e|-----------------|-----------------|-----------------|-----------------|
B|-----------------|-----------------|-----------------|-----------------|
G|-----------------|-----------------|-----------------|-----------------|
D|-8---8x--------8-|-----8x------8---|-8---8x----------|-----------------|
A|-8---8x--------8-|---6-8x------6-6-|-8---8x----5---6-|---5---6---5-----|
E|-6---6x--------6-|---6-6x------6-6-|-6---6x----3---4-|---3---4---3-----|

   ˇ                 ˇ                 ˇ                                 
   1 & 2 & 3 & 4 &   1 & 2 & 3 & 4 &   1 & 2 & 3 & 4 &   1 & 2 & 3 & 4 &
e|-----------------|-----------------|-----------------|-----------------|
B|-----------------|-----------------|-----------------|-----------------|
G|-----------------|-----------------|-----------------|-----------------|
D|-4---------------|-3---------------|-----------------|-----------------|
A|-4---------------|-3---------------|-6---------------|-----------------|
E|-2---------------|-1---------------|-6---------------|-----------------|

   ˇ                 ˇ                 ˇ                             ˇ ˆ    
   1 & 2 & 3 & 4 &   1 & 2 & 3 & 4 &   1 & 2 & 3 & 4 &   1 & 2 & 3 & 4 &
e|-----------------|-----------------|-----------------|-----------------|
B|-----------------|-----------------|-----------------|-----------------|
G|-----------------|-----------------|-----------------|-----------------|
D|-----------------|-----------------|-6---------------|-------------8---|
A|-4---------------|-2---------------|-6---------------|-------------6-6-|
E|-4---------------|-2---------------|-4---------------|-------------6-6-|



   ˇ   ˇ         ˇ     ˆ ˇ       ˇ ˆ   ˇ   ˇ         ˇ     ˇ   ˇ   ˆ ˇ ˆ   4x
   1 & 2 & 3 & 4 &   1 & 2 & 3 & 4 &   1 & 2 & 3 & 4 &   1 & 2 & 3 & 4 &
e|-----------------|-----------------|-----------------|-----------------|
B|-----------------|-----------------|-----------------|-----------------|
G|-----------------|-----------------|-----------------|-----------------|
D|-8---8x--------8-|-----8x------8---|-8---8x--------6-|-------------8---|
A|-8---8x--------8-|---6-8x------6-6-|-8---8x--------6-|---4---6---6-6-6-|
E|-6---6x--------6-|---6-6x------6-6-|-6---6x--------4-|---4---6---6-6-6-|

   ˇ   ˇ         ˇ     ˆ ˇ       ˇ ˆ   ˇ   ˇ     ˇ   ˇ     ˇ   ˇ     ˇ ˆ   
   1 & 2 & 3 & 4 &   1 & 2 & 3 & 4 &   1 & 2 & 3 & 4 &   1 & 2 & 3 & 4 &
e|-----------------|-----------------|-----------------|-----------------|
B|-----------------|-----------------|-----------------|-----------------|
G|-----------------|-----------------|-----------------|-----------------|
D|-8---8x--------8-|-----8x------8---|-8---8x----------|-------------8---|
A|-8---8x--------8-|---6-8x------6-6-|-8---8x----5---6-|---5---6-----6-6-|
E|-6---6x--------6-|---6-6x------6-6-|-6---6x----3---4-|---3---4-----6-6-|



   ˇ   ˇ         ˇ     ˆ ˇ       ˇ ˆ   ˇ   ˇ         ˇ     ˇ   ˇ   ˆ ˇ ˆ   3x...
   1 & 2 & 3 & 4 &   1 & 2 & 3 & 4 &   1 & 2 & 3 & 4 &   1 & 2 & 3 & 4 &
e|-----------------|-----------------|-----------------|-----------------|
B|-----------------|-----------------|-----------------|-----------------|
G|-----------------|-----------------|-----------------|-----------------|
D|-8---8x--------8-|-----8x------8---|-8---8x--------6-|-------------8---|
A|-8---8x--------8-|---6-8x------6-6-|-8---8x--------6-|---4---6---6-6-6-|
E|-6---6x--------6-|---6-6x------6-6-|-6---6x--------4-|---4---6---6-6-6-|


***************
| ˇ stroke down
| ˇ stroke up
| x mute
***************
Tap to rate this tab
# A B C D E F G H I J K L M N O P Q R S T U V W X Y Z