Song name
# A B C D E F G H I J K L M N O P Q R S T U V W X Y Z

Genesis - I Cant Dance tab

none of the others seemed right so try this and give some feed back

thedrain@mindless.com

Genesis -I Can't Dance

verse and chorus
Main riff
                                                                                         
                                 slide /
[----------------------------------------------------------------]
[----------------------------------------------------------------]
[-1--3---3--x-x--3---1-----3--x-x--1-3---3-3--x-x--8-/-6---4--4--]
[-1--3---3--x-x--3---1-----3--x-x--1-3---3-3--x-x--8-/-6---4--4--]
[----1---1--x-x--1---------1--x-x----1---1-1--x-x--6-/-4---2--2--]
[----------------------------------------------------------------]


break after 2nd &3rd chorus

[-------------]
[-------------]
[-------------]
[--4--3--6----]
[--4--3--6----]
[--2--1--4----]
Tap to rate this tab
# A B C D E F G H I J K L M N O P Q R S T U V W X Y Z