Song name
# A B C D E F G H I J K L M N O P Q R S T U V W X Y Z

Genesis - Fountain Of Salmacis tab

Band Name: Genesis
Song Name: Fountain of Salmacis
Tabbed By: Terry Sims (Masterofdarknes)
Email: Floyd_Fan89@teenspot.com


Fountain of Salmacis, This is the end solo.


             sl
e|----------7--0---12-12-10-9-----------------------------------------|
B|-7--9-10--------------------12--------------------------------------|
G|-------------------------------9------------------------------------|
D|---------------------------------12-11-9--4-6-7-6-7-6-7-6-7-6-------|
A|--------------------------------------------------------------------|
E|--------------------------------------------------------------------|

|---------------------------------------------------------------------|
|---------------------------------------------------------------------|
|---------------------------------------------------------------------|
|-4--6--7--6--7--6--7--6--7--6---------------------7--6--9--7-11--9-12|
|--------------------------------------------7--7---------------------|
|--------------------------------2--4--5--7---------------------------|

                      sl    sl      sl  sl         sl  sl
|-------------14----9--7~-9--7~--10~-14~-7~-9-10-9--14~-7~-9-10-9-----|
|----------------15---------------------------------------------------|
|----9----------------------------------------------------------------|
|-11---11-12----------------------------------------------------------|
|---------------------------------------------------------------------|
|---------------------------------------------------------------------|
Tap to rate this tab
# A B C D E F G H I J K L M N O P Q R S T U V W X Y Z