Song name
# A B C D E F G H I J K L M N O P Q R S T U V W X Y Z

Genesis - I Know What I Like tab

Genesis - I know what I like (in your wardrobe)
From the album Selling England by the Pound (1973)

Transcribed by Philippe Farget - pfarget@free.fr

(4/4)

VERSES
					
E|-0---0---0---0---|
B|-2---3---2---0---|
G|-2---2---2---2---|
D|-2---2---2---2---|
A|-0-0-0-0-0-0-0-0-|
E|-----------------| 

That's basically it. Repeat 7 times

                              
CHORUS


I  know       what I  like       and I   like       what I   know     getting

     (strum)			(strum)		(strum)			(strum)
E|-0-----------------|-0---------------|-2-----------------|-0---------------|
B|-3-----------------|-2---------------|-0-----------------|-2---------------|
G|-0-----------------|-0---------------|-2-----------------|-2---------------|       
D|-2-----------------|-2---------------|-0-----------------|-0---------------|
A|-0-----------------|-0---------------|-------------------|-----------------|
E|-------------------|-----------------|-------------------|-----------------|




  better     in your  wardrobe  steppin' one    beyond your  show 

     (strum)			(strum)    (strum)
E|-2-----------------|-2---------------|-2-----------------|-0---0---0---0---|
B|-0-----------------|-3---------------|-3-----------------|-2---3---2---3---|
G|-0-----------------|-0---------------|-2-----------------|-2---2---2---2---|
D|-0-----------------|-2---------------|-2-----------------|-2---3---2---3---|
A|-0-----------------|-0---------------|-3-----------------|-0-0-0-0-0-0-0-0-|
E|-------------------|-----------------|-------------------|-----------------|




It's one o'clock and time for lunch,
When the sun beats down and I lie on the bench
I can always hear them talk.

There's always been Ethel:
"Jacob, wake up! You've got to tidy your room now."
And then Mister Lewis:
"Isn't it time that he was out on his own?"
Over the garden wall, two little lovebirds - cuckoo to you!
Keep the mowing blades sharp...

I know what I like, and I like what I know;
getting better in your wardrobe, stepping one beyond your show.

Sunday night, Mr Farmer called, said:
"Listen son, you're wasting your time; there's a future for you
in the fire escape trade. Come up to town!"
But I remebered a voice from the past;
"Gambling only pays when you're winning"
- I had to thank old Miss Mort for schooling a failure.
Keep the mowing blades sharp...

I know what I like, and I like what I know;
getting better in your wardrobe, stepping one beyond your show.

When the sun beats down and I lie on the bench,
I can always hear them talk.
Me, I'm just a lawnmower - you can tell me by the way I walk.
Tap to rate this tab
 
# A B C D E F G H I J K L M N O P Q R S T U V W X Y Z