Song name
# A B C D E F G H I J K L M N O P Q R S T U V W X Y Z

Genesis - One For The Vine tab

-----------------------------------------------------------------------
                  One for the vine - Genesis
-----------------------------------------------------------------------
Tabbed by: J-P Blais


Tuning: normal

e|--0--3----------------0--3---------------|
B|--1--3--6--5--3--5----1--3--6--5--3--1---|
G|--2--0----------------2--0---------------|       
D|--2--0----------------2--0---------------|   
A|--0--2----------------0--2---------------|
E|-----3-------------------3---------------|


e|--0--3----------------0--3---------------|
B|--1--3--3--5--6--5----1--3--6--5--3--1---|
G|--2--0----------------2--0---------------|       
D|--2--0----------------2--0---------------|   
A|--0--2----------------0--2---------------|
E|-----3-------------------3---------------|
Tap to rate this tab
# A B C D E F G H I J K L M N O P Q R S T U V W X Y Z