Song name
# A B C D E F G H I J K L M N O P Q R S T U V W X Y Z

Genghis Tron - Ride The Steambolt tab

---------------------------------------------------------------
	     Ride the Steambolt - Genghis Tron
---------------------------------------------------------------
Tabbed by:Dean C
Email:dean1706@msn.com

Tuning:DADGBe


This is my first tab so any feedback and corrections would 
be appreciated, just email me. Im not sure thats it 100% correct 
i just looked at videos of genghis tron live, its not bad, cheers.

e|-------------------------------------------------------------|
B|-------------------------------------------------------------|
G|-------------------------------------------------------------|
D|-------------------------------------------------------------|
A|---5555888833335555----3333-------3h53h5--2h42h4-repeat x 5--|
D|-1-----------------7777----5555-33------22-------------------|
     ...............................      ..
 (or 555888333555 etc) 
e|-------------------------------------------------------------|
B|-------------------------------------------------------------|
G|-----------7----8\7---5/7------------------------------------|
D|14\7-0000--7-00-8\7-005/7-00-2/3-----------------------------|
A|14\7-0000--5-00-6\5-003/5-00-2/3--0-00-----------------------|
D|14\7-0000----00-----00----00------0-00-----------------------|
       ....    ..     ..    ..      . ..
      [__________________________________] repeat x 6  
e|-13p12p10-11p10p8-9p8p5-8p7p5-6p5p3-6P3hold-1-----3-2~-------|
B|----------------------------------------------0-1------------|
G|-------------------------------------------------------------|
D|-------------------------------------------------------------|
A|-------------------------------------------------------------|
D|-------------------------------------------------------------|
   T        T       T     T     T     T
Not sure how many taps for each part just go along with the 
song

. palm mute
h Hammer on
p pull off
\ slide down
/ slide up
T tap
~ held note
Tap to rate this tab
# A B C D E F G H I J K L M N O P Q R S T U V W X Y Z