Song name
# A B C D E F G H I J K L M N O P Q R S T U V W X Y Z

Genghis Tron - Asleep On The Forest Floor tab

Genghis Tron
Asleep On The Forest Floor

repeat 4 times
e---------------------------------------------------------------------------|
b---------------------------------------------------------------------------|
g---------------------------------------------------------------------------|
d----8-7-------5-4-3--10-----12-14-10---------------------------------------|
a----6-5-------3-2-1---8-----10-12--8---------------------------------------|
d--0-----0-0-0-------0---0-0------------------------------------------------|
   p     p p p       p   p p
e---------------------------------------------------------------------------|
b---------------------------------------------------------------------------|
g---------------------------------------------------------------------------|
d----8-7-------5-4-3--10---8-----11-----------------------------------------|
a----6-5-------3-2-1---8---6------9-----------------------------------------|
d--0-----0-0-0-------0---0---0-0--------------------------------------------|
   p     p p p       p   p   p p

repeat 8 times
e---------------------------------------------------------------------------|
b---------------------------------------------------------------------------|
g---------------------------------------------------------------------------|
d---------------------------------------------------------------------------|
a-1-0-0-0-0-0-0-0-----------------------------------------------------------|
d-1-0-0-0-0-0-0-0-----------------------------------------------------------|
  p p p p p p p p

  x32  x32
e---5----6------------------------------------------------------------------|
b---5---11------------------------------------------------------------------|
g--10---11------------------------------------------------------------------|
d--10---11------------------------------------------------------------------|
a---5----6------------------------------------------------------------------|
d---------------------------------------------------------------------------|

repeat till song ends
e---------------------------------------------------------------------------|
b---------------------------------------------------------------------------|
g---------------------------------------------------------------------------|
d----8-7-------5-4-3--10-----12-14-10---------------------------------------|
a----6-5-------3-2-1---8-----10-12--8---------------------------------------|
d--0-----0-0-0-------0---0-0------------------------------------------------|
   p     p p p       p   p p
e---------------------------------------------------------------------------|
b---------------------------------------------------------------------------|
g---------------------------------------------------------------------------|
d----8-7-------5-4-3--10---8-----11-----------------------------------------|
a----6-5-------3-2-1---8---6------9-----------------------------------------|
d--0-----0-0-0-------0---0---0-0--------------------------------------------|
   p     p p p       p   p   p p
Tap to rate this tab
# A B C D E F G H I J K L M N O P Q R S T U V W X Y Z