Guitaretab - guitar tabs
Song name
# A B C D E F G H I J K L M N O P Q R S T U V W X Y Z

Genitallica - Que Fue Lo Que Paso tab

El intro no es exactamente igual pero suena 
parecido, 



Intro 

e----- 2 veces -----|----- 2 veces -----|-------------------|
B-------------------|-------------------|-------------------|
G-------------------|-------------------|-----7777----------|
D-----7777----------|----9999-----------|---------7777-5555-|
A---------7777-5555-|--------9999-7777--|-5555--------------|
E-5555--------------|-7777--------------|-------------------|

e-------------------|----- 2 veces -----|
B-------------------|-------------------|
G-----9999----------|-------------------|
D---------9999-7777-|-----7777----------|
A-7777--------------|---------7777-5555-|
E-------------------|-5555--------------|



Verso 

  A                    Bm                  D                   
e--------------------|--------------------|--------------------|
B--------------------|--------------------|-7-7x--x77x---------|
G-6-6x--x66x-7p6---6-|-7-7x--x77x-7p6---6-|-7-7x--x77x-7p6---6-|
D-7-7x--x77x-----7---|-9-9x--x99x-----7---|-7-7x--x77x-----7---|
A-7-7x--x77x---------|-9-9x--x99x---------|-5-5x--x55x---------|
E-5-5x--x55x---------|-7-7x--x77x---------|--------------------|


  E
e--------------------------------|
B--------------------------------|
G--9---9-7p6---6---9---9-7p6---6-|
D----9-------7-------9-------7---|
A-7--------------7---------------|
E--------------------------------|

[ Tab from: http://www.guitaretab.com/g/genitallica/93703.html ]
  A                    Bm                  D                   
e--------------------|--------------------|---------------------|
B--------------------|--------------------|-1010x--x77x---------|
G-6-6x--x66x-7p6---6-|-7-7x--x77x-7p6---6-|--7-7x--x77x-7p6---6-|
D-7-7x--x77x-----7---|-9-9x--x99x-----7---|--------x77x-----7---|
A-7-7x--x77x---------|-9-9x--x99x---------|--------x55x---------|
E-5-5x--x55x---------|-7-7x--x77x---------|---------------------|


  E
e--------------------------------|
B--------------------------------|
G--9---9-7p6---6---9---9-7p6---6-|
D----9-------7-------9-------7---|
A-7--------------7---------------|
E--------------------------------|




Coro
  A    A     Bm    D  E  A
e----|-------------------------|
B----|-------------7--9--------|
G-6~-|-6--6--7--7--7--9--6--6--|
D-7~-|-7--7--9--9--7--9--7--7--|
A-7~-|-7--7--9--9--5--7--7--7--|
E-5~-|-5--5--7--7--------5--5--|


Break x2
  A                Bm             D        E        A 

e-x5x5x5x5x5x5x5x5-x7x7x7x7x7x7x7-x5x5x5x5-x7x7x7x7-x5x5x5x5x5x5x5x5-|
B-x5x5x5x5x5x5x5x5-x7x7x7x7x7x7x7-x7x7x7x7-x9x9x9x9-x5x5x5x5x5x5x5x5-|
G-x6x6x6x6x6x6x6x6-x7x7x7x7x7x7x7-x7x7x7x7-x9x9x9x9-x6x6x6x6x6x6x6x6-|
D-x7x7x7x7x7x7x7x7-x9x9x9x9x9x9x9-x7x7x7x7-x9x9x9x9-x7x7x7x7x7x7x7x7-|
A--------------------------------------------------------------------|
E--------------------------------------------------------------------|


Se repite:
--Verso
--Coro
--Break (ya nadie puede parar) hasta el final

Final en:
  A
e---|
B---|
G-6-|
D-7-|
A-7-|
E-5-|
Related for Que Fue Lo Que Paso tab
×
Best way to learn
"Que Fue Lo Que Paso"